  0
SECTION
  2
HEADER
  9
$ACADVER
  1
AC1015
  9
$ACADMAINTVER
 70
     6
  9
$DWGCODEPAGE
  3
ANSI_1254
  9
$INSBASE
 10
0.0
 20
0.0
 30
0.0
  9
$EXTMIN
 10
0.0
 20
0.0
 30
0.0
  9
$EXTMAX
 10
279.4
 20
215.9
 30
0.0
  9
$LIMMIN
 10
0.0
 20
0.0
  9
$LIMMAX
 10
279.4
 20
215.9
  9
$ORTHOMODE
 70
     0
  9
$REGENMODE
 70
     1
  9
$FILLMODE
 70
     1
  9
$QTEXTMODE
 70
     0
  9
$MIRRTEXT
 70
     1
  9
$LTSCALE
 40
1.0
  9
$ATTMODE
 70
     1
  9
$TEXTSIZE
 40
3.5
  9
$TRACEWID
 40
1.0
  9
$TEXTSTYLE
  7
Standard
  9
$CLAYER
  8
0
  9
$CELTYPE
  6
ByLayer
  9
$CECOLOR
 62
   256
  9
$CELTSCALE
 40
1.0
  9
$DISPSILH
 70
     0
  9
$DIMSCALE
 40
1.0
  9
$DIMASZ
 40
3.5
  9
$DIMEXO
 40
1.0
  9
$DIMDLI
 40
3.75
  9
$DIMRND
 40
0.0
  9
$DIMDLE
 40
0.0
  9
$DIMEXE
 40
1.0
  9
$DIMTP
 40
0.0
  9
$DIMTM
 40
0.0
  9
$DIMTXT
 40
3.5
  9
$DIMCEN
 40
2.5
  9
$DIMTSZ
 40
0.0
  9
$DIMTOL
 70
     0
  9
$DIMLIM
 70
     0
  9
$DIMTIH
 70
     1
  9
$DIMTOH
 70
     1
  9
$DIMSE1
 70
     0
  9
$DIMSE2
 70
     0
  9
$DIMTAD
 70
     1
  9
$DIMZIN
 70
     0
  9
$DIMBLK
  1

  9
$DIMASO
 70
     1
  9
$DIMSHO
 70
     1
  9
$DIMPOST
  1

  9
$DIMAPOST
  1

  9
$DIMALT
 70
     0
  9
$DIMALTD
 70
     3
  9
$DIMALTF
 40
0.0393700787
  9
$DIMLFAC
 40
1.0
  9
$DIMTOFL
 70
     1
  9
$DIMTVP
 40
0.0
  9
$DIMTIX
 70
     0
  9
$DIMSOXD
 70
     0
  9
$DIMSAH
 70
     0
  9
$DIMBLK1
  1

  9
$DIMBLK2
  1

  9
$DIMSTYLE
  2
ISO-25
  9
$DIMCLRD
 70
     0
  9
$DIMCLRE
 70
     0
  9
$DIMCLRT
 70
     0
  9
$DIMTFAC
 40
1.0
  9
$DIMGAP
 40
1.524
  9
$DIMJUST
 70
     0
  9
$DIMSD1
 70
     0
  9
$DIMSD2
 70
     0
  9
$DIMTOLJ
 70
     0
  9
$DIMTZIN
 70
     0
  9
$DIMALTZ
 70
     0
  9
$DIMALTTZ
 70
     0
  9
$DIMUPT
 70
     0
  9
$DIMDEC
 70
     2
  9
$DIMTDEC
 70
     2
  9
$DIMALTU
 70
     2
  9
$DIMALTTD
 70
     3
  9
$DIMTXSTY
  7
Standard
  9
$DIMAUNIT
 70
     0
  9
$DIMADEC
 70
     2
  9
$DIMALTRND
 40
0.0
  9
$DIMAZIN
 70
     0
  9
$DIMDSEP
 70
    44
  9
$DIMATFIT
 70
     3
  9
$DIMFRAC
 70
     0
  9
$DIMLDRBLK
  1

  9
$DIMLUNIT
 70
     2
  9
$DIMLWD
 70
    -2
  9
$DIMLWE
 70
    -2
  9
$DIMTMOVE
 70
     0
  9
$LUNITS
 70
     2
  9
$LUPREC
 70
     2
  9
$SKETCHINC
 40
1.0
  9
$FILLETRAD
 40
10.0
  9
$AUNITS
 70
     0
  9
$AUPREC
 70
     2
  9
$MENU
  1
.
  9
$ELEVATION
 40
0.0
  9
$PELEVATION
 40
0.0
  9
$THICKNESS
 40
0.0
  9
$LIMCHECK
 70
     0
  9
$CHAMFERA
 40
0.0
  9
$CHAMFERB
 40
0.0
  9
$CHAMFERC
 40
0.0
  9
$CHAMFERD
 40
0.0
  9
$SKPOLY
 70
     0
  9
$TDCREATE
 40
2460390.355044954
  9
$TDUCREATE
 40
2460390.230044954
  9
$TDUPDATE
 40
2460390.35504515
  9
$TDUUPDATE
 40
2460390.23004515
  9
$TDINDWG
 40
0.0000000116
  9
$TDUSRTIMER
 40
0.0000000116
  9
$USRTIMER
 70
     1
  9
$ANGBASE
 50
0.0
  9
$ANGDIR
 70
     0
  9
$PDMODE
 70
     0
  9
$PDSIZE
 40
-1.0
  9
$PLINEWID
 40
0.0
  9
$SPLFRAME
 70
     0
  9
$SPLINETYPE
 70
     6
  9
$SPLINESEGS
 70
     8
  9
$HANDSEED
  5
10F
  9
$SURFTAB1
 70
     6
  9
$SURFTAB2
 70
     6
  9
$SURFTYPE
 70
     6
  9
$SURFU
 70
     6
  9
$SURFV
 70
     6
  9
$UCSBASE
  2

  9
$UCSNAME
  2

  9
$UCSORG
 10
0.0
 20
0.0
 30
0.0
  9
$UCSXDIR
 10
1.0
 20
0.0
 30
0.0
  9
$UCSYDIR
 10
0.0
 20
1.0
 30
0.0
  9
$UCSORTHOREF
  2

  9
$UCSORTHOVIEW
 70
     0
  9
$UCSORGTOP
 10
0.0
 20
0.0
 30
0.0
  9
$UCSORGBOTTOM
 10
0.0
 20
0.0
 30
0.0
  9
$UCSORGLEFT
 10
0.0
 20
0.0
 30
0.0
  9
$UCSORGRIGHT
 10
0.0
 20
0.0
 30
0.0
  9
$UCSORGFRONT
 10
0.0
 20
0.0
 30
0.0
  9
$UCSORGBACK
 10
0.0
 20
0.0
 30
0.0
  9
$PUCSBASE
  2

  9
$PUCSNAME
  2

  9
$PUCSORG
 10
0.0
 20
0.0
 30
0.0
  9
$PUCSXDIR
 10
1.0
 20
0.0
 30
0.0
  9
$PUCSYDIR
 10
0.0
 20
1.0
 30
0.0
  9
$PUCSORTHOREF
  2

  9
$PUCSORTHOVIEW
 70
     0
  9
$PUCSORGTOP
 10
0.0
 20
0.0
 30
0.0
  9
$PUCSORGBOTTOM
 10
0.0
 20
0.0
 30
0.0
  9
$PUCSORGLEFT
 10
0.0
 20
0.0
 30
0.0
  9
$PUCSORGRIGHT
 10
0.0
 20
0.0
 30
0.0
  9
$PUCSORGFRONT
 10
0.0
 20
0.0
 30
0.0
  9
$PUCSORGBACK
 10
0.0
 20
0.0
 30
0.0
  9
$USERI1
 70
     0
  9
$USERI2
 70
     0
  9
$USERI3
 70
     0
  9
$USERI4
 70
     0
  9
$USERI5
 70
     0
  9
$USERR1
 40
0.0
  9
$USERR2
 40
0.0
  9
$USERR3
 40
0.0
  9
$USERR4
 40
0.0
  9
$USERR5
 40
0.0
  9
$WORLDVIEW
 70
     1
  9
$SHADEDGE
 70
     3
  9
$SHADEDIF
 70
    70
  9
$TILEMODE
 70
     1
  9
$MAXACTVP
 70
    64
  9
$PINSBASE
 10
0.0
 20
0.0
 30
0.0
  9
$PLIMCHECK
 70
     0
  9
$PEXTMIN
 10
1.0000000000E+20
 20
1.0000000000E+20
 30
1.0000000000E+20
  9
$PEXTMAX
 10
-1.0000000000E+20
 20
-1.0000000000E+20
 30
-1.0000000000E+20
  9
$PLIMMIN
 10
0.0
 20
0.0
  9
$PLIMMAX
 10
420.0
 20
297.0
  9
$UNITMODE
 70
     0
  9
$VISRETAIN
 70
     1
  9
$PLINEGEN
 70
     0
  9
$PSLTSCALE
 70
     1
  9
$TREEDEPTH
 70
  3020
  9
$CMLSTYLE
  2
Standard
  9
$CMLJUST
 70
     0
  9
$CMLSCALE
 40
20.0
  9
$PROXYGRAPHICS
 70
     1
  9
$MEASUREMENT
 70
     1
  9
$CELWEIGHT
370
    -1
  9
$ENDCAPS
280
     0
  9
$JOINSTYLE
280
     0
  9
$LWDISPLAY
290
     1
  9
$INSUNITS
 70
     4
  9
$HYPERLINKBASE
  1

  9
$STYLESHEET
  1

  9
$XEDIT
290
     1
  9
$CEPSNTYPE
380
     0
  9
$PSTYLEMODE
290
     1
  9
$FINGERPRINTGUID
  2
{afbe5069-6d59-4978-9ac4-567fcea690db}
  9
$VERSIONGUID
  2
{FAEB1C32-E019-11D5-929B-00C0DF256EC4}
  9
$EXTNAMES
290
     1
  9
$PSVPSCALE
 40
0.0
  9
$OLESTARTUP
290
     0
  0
ENDSEC
  0
SECTION
  2
CLASSES
  0
CLASS
  1
ACDBDICTIONARYWDFLT
  2
AcDbDictionaryWithDefault
  3
ObjectDBX Classes
 90
        0
280
     0
281
     0
  0
CLASS
  1
VISUALSTYLE
  2
AcDbVisualStyle
  3
ObjectDBX Classes
 90
     4095
280
     0
281
     0
  0
CLASS
  1
MATERIAL
  2
AcDbMaterial
  3
ObjectDBX Classes
 90
     1153
280
     0
281
     0
  0
CLASS
  1
SCALE
  2
AcDbScale
  3
ObjectDBX Classes
 90
     1153
280
     0
281
     0
  0
CLASS
  1
TABLESTYLE
  2
AcDbTableStyle
  3
ObjectDBX Classes
 90
     4095
280
     0
281
     0
  0
CLASS
  1
MLEADERSTYLE
  2
AcDbMLeaderStyle
  3
ACDB_MLEADERSTYLE_CLASS
 90
     4095
280
     0
281
     0
  0
CLASS
  1
SUN
  2
AcDbSun
  3
SCENEOE
 90
     1153
280
     0
281
     0
  0
CLASS
  1
ACDBPLACEHOLDER
  2
AcDbPlaceHolder
  3
ObjectDBX Classes
 90
        0
280
     0
281
     0
  0
CLASS
  1
LAYOUT
  2
AcDbLayout
  3
ObjectDBX Classes
 90
        0
280
     0
281
     0
  0
ENDSEC
  0
SECTION
  2
TABLES
  0
TABLE
  2
VPORT
  5
8
330
0
100
AcDbSymbolTable
 70
     1
  0
VPORT
  5
29
330
8
100
AcDbSymbolTableRecord
100
AcDbViewportTableRecord
  2
*Active
 70
     0
 10
0.0
 20
0.0
 11
1.0
 21
1.0
 12
139.7
 22
107.95
 13
0.0
 23
0.0
 14
10.0
 24
10.0
 15
10.0
 25
10.0
 16
0.0
 26
0.0
 36
1.0
 17
0.0
 27
0.0
 37
0.0
 40
215.9
 41
1.2941176471
 42
50.0
 43
0.0
 44
0.0
 50
0.0
 51
0.0
 71
     0
 72
  2000
 73
     1
 74
     3
 75
     0
 76
     0
 77
     0
 78
     0
281
     0
 65
     1
110
0.0
120
0.0
130
0.0
111
1.0
121
0.0
131
0.0
112
0.0
122
1.0
132
0.0
 79
     0
146
0.0
  0
ENDTAB
  0
TABLE
  2
LTYPE
  5
5
330
0
100
AcDbSymbolTable
 70
     6
  0
LTYPE
  5
14
330
5
100
AcDbSymbolTableRecord
100
AcDbLinetypeTableRecord
  2
ByBlock
 70
     0
  3

 72
    65
 73
     0
 40
0.0
  0
LTYPE
  5
15
330
5
100
AcDbSymbolTableRecord
100
AcDbLinetypeTableRecord
  2
ByLayer
 70
     0
  3

 72
    65
 73
     0
 40
0.0
  0
LTYPE
  5
16
330
5
100
AcDbSymbolTableRecord
100
AcDbLinetypeTableRecord
  2
Continuous
 70
     0
  3
Solid line
 72
    65
 73
     0
 40
0.0
  0
LTYPE
  5
6E
330
5
100
AcDbSymbolTableRecord
100
AcDbLinetypeTableRecord
  2
HIDDEN
 70
     0
  3
Hidden __ __ __ __ __ __ __ __ __ __ __ __ __ __
 72
    65
 73
     2
 40
1.905
 49
1.27
 74
     0
 49
-0.635
 74
     0
  0
LTYPE
  5
6F
330
5
100
AcDbSymbolTableRecord
100
AcDbLinetypeTableRecord
  2
PHANTOM
 70
     0
  3
Phantom ______  __  __  ______  __  __  ______
 72
    65
 73
     6
 40
12.7
 49
6.35
 74
     0
 49
-1.27
 74
     0
 49
1.27
 74
     0
 49
-1.27
 74
     0
 49
1.27
 74
     0
 49
-1.27
 74
     0
  0
LTYPE
  5
70
330
5
100
AcDbSymbolTableRecord
100
AcDbLinetypeTableRecord
  2
CENTER
 70
     0
  3
Center ____ _ ____ _ ____ _ ____ _ ____ _ ____
 72
    65
 73
     4
 40
10.16
 49
6.35
 74
     0
 49
-1.27
 74
     0
 49
1.27
 74
     0
 49
-1.27
 74
     0
  0
LTYPE
  5
71
330
5
100
AcDbSymbolTableRecord
100
AcDbLinetypeTableRecord
  2
CENTERX2
 70
     0
  3
Center (2x) ________  __  ________  __  _____
 72
    65
 73
     4
 40
20.32
 49
12.7
 74
     0
 49
-2.54
 74
     0
 49
2.54
 74
     0
 49
-2.54
 74
     0
  0
LTYPE
  5
72
330
5
100
AcDbSymbolTableRecord
100
AcDbLinetypeTableRecord
  2
DOT2
 70
     0
  3
Dot (.5x) ........................................
 72
    65
 73
     2
 40
0.635
 49
0.0
 74
     0
 49
-0.635
 74
     0
  0
ENDTAB
  0
TABLE
  2
LAYER
  5
2
330
0
100
AcDbSymbolTable
 70
    17
  0
LAYER
  5
10
330
2
100
AcDbSymbolTableRecord
100
AcDbLayerTableRecord
  2
0
 70
     0
 62
     7
  6
Continuous
370
    -3
390
F
  0
LAYER
  5
73
330
2
100
AcDbSymbolTableRecord
100
AcDbLayerTableRecord
  2
FORMAT
 70
     0
 62
     7
  6
Continuous
370
    -3
390
F
  0
LAYER
  5
74
330
2
100
AcDbSymbolTableRecord
100
AcDbLayerTableRecord
  2
YARDIMCI_GEOMETRI
 70
     0
 62
    -6
  6
Continuous
290
     0
370
    -3
390
F
  0
LAYER
  5
75
330
2
100
AcDbSymbolTableRecord
100
AcDbLayerTableRecord
  2
SAYFA_CERCEVESI
 70
     0
 62
     7
  6
Continuous
370
    25
390
F
  0
LAYER
  5
76
330
2
100
AcDbSymbolTableRecord
100
AcDbLayerTableRecord
  2
ANTET
 70
     0
 62
     7
  6
Continuous
370
    -3
390
F
  0
LAYER
  5
77
330
2
100
AcDbSymbolTableRecord
100
AcDbLayerTableRecord
  2
OLCU
 70
     0
 62
   150
  6
Continuous
370
    -3
390
F
  0
LAYER
  5
78
330
2
100
AcDbSymbolTableRecord
100
AcDbLayerTableRecord
  2
METIN
 70
     0
 62
    96
  6
Continuous
370
    -3
390
F
  0
LAYER
  5
79
330
2
100
AcDbSymbolTableRecord
100
AcDbLayerTableRecord
  2
BALON
 70
     0
 62
     5
  6
Continuous
370
    -3
390
F
  0
LAYER
  5
7A
330
2
100
AcDbSymbolTableRecord
100
AcDbLayerTableRecord
  2
VURGU
 70
     0
 62
     7
  6
Continuous
370
    -3
390
F
  0
LAYER
  5
7B
330
2
100
AcDbSymbolTableRecord
100
AcDbLayerTableRecord
  2
SILIK
 70
     0
 62
     7
  6
Continuous
370
    -3
390
F
  0
LAYER
  5
7C
330
2
100
AcDbSymbolTableRecord
100
AcDbLayerTableRecord
  2
MODEL
 70
     0
 62
     7
  6
Continuous
370
    -3
390
F
  0
LAYER
  5
7D
330
2
100
AcDbSymbolTableRecord
100
AcDbLayerTableRecord
  2
DETAYLANDıRMA
 70
     0
 62
   190
  6
Continuous
370
    -3
390
F
  0
LAYER
  5
7E
330
2
100
AcDbSymbolTableRecord
100
AcDbLayerTableRecord
  2
TOLERANS
 70
     0
 62
   230
  6
Continuous
370
    -3
390
F
  0
LAYER
  5
7F
330
2
100
AcDbSymbolTableRecord
100
AcDbLayerTableRecord
  2
MERKEZ_CIZGILERI
 70
     0
 62
    30
  6
Continuous
370
    -3
390
F
  0
LAYER
  5
80
330
2
100
AcDbSymbolTableRecord
100
AcDbLayerTableRecord
  2
KESIT-DETAY_CIZGILERI
 70
     0
 62
     7
  6
Continuous
370
    -3
390
F
  0
LAYER
  5
81
330
2
100
AcDbSymbolTableRecord
100
AcDbLayerTableRecord
  2
\U+041E\U+0421\U+0415\U+0412\U+042B\U+0415
 70
     0
 62
     7
  6
Continuous
370
    -3
390
F
  0
LAYER
  5
82
330
2
100
AcDbSymbolTableRecord
100
AcDbLayerTableRecord
  2
\U+0412\U+041E\U+0414\U+042F\U+041D\U+042B\U+0415_\U+0417\U+041D\U+0410\U+041A\U+0418
 70
     0
 62
    11
  6
Continuous
370
    -3
390
F
  0
ENDTAB
  0
TABLE
  2
STYLE
  5
3
330
0
100
AcDbSymbolTable
 70
     1
  0
STYLE
  5
11
330
3
100
AcDbSymbolTableRecord
100
AcDbTextStyleTableRecord
  2
Standard
 70
     0
 40
0.0
 41
1.0
 50
0.0
 71
     0
 42
3.5
  3
txt
  4

  0
ENDTAB
  0
TABLE
  2
VIEW
  5
6
330
0
100
AcDbSymbolTable
 70
     0
  0
ENDTAB
  0
TABLE
  2
UCS
  5
7
330
0
100
AcDbSymbolTable
 70
     0
  0
ENDTAB
  0
TABLE
  2
APPID
  5
9
330
0
100
AcDbSymbolTable
 70
     1
  0
APPID
  5
12
330
9
100
AcDbSymbolTableRecord
100
AcDbRegAppTableRecord
  2
ACAD
 70
     0
  0
ENDTAB
  0
TABLE
  2
DIMSTYLE
  5
A
330
0
100
AcDbSymbolTable
 70
     1
100
AcDbDimStyleTable
  0
DIMSTYLE
105
27
330
A
100
AcDbSymbolTableRecord
100
AcDbDimStyleTableRecord
  2
ISO-25
 70
     0
 41
2.5
 42
0.625
 43
3.75
 44
1.25
 73
     0
 74
     0
 77
     1
 78
     8
140
2.5
141
2.5
143
0.0393700787
147
0.625
171
     3
172
     1
178
     0
271
     2
272
     2
274
     3
278
    44
283
     0
284
     8
340
11
  0
ENDTAB
  0
TABLE
  2
BLOCK_RECORD
  5
1
330
0
100
AcDbSymbolTable
 70
     4
  0
BLOCK_RECORD
  5
1F
330
1
100
AcDbSymbolTableRecord
100
AcDbBlockTableRecord
  2
*Model_Space
340
22
  0
BLOCK_RECORD
  5
1B
330
1
100
AcDbSymbolTableRecord
100
AcDbBlockTableRecord
  2
*Paper_Space
340
1E
  0
BLOCK_RECORD
  5
23
330
1
100
AcDbSymbolTableRecord
100
AcDbBlockTableRecord
  2
*Paper_Space0
340
26
  0
BLOCK_RECORD
  5
8C
330
1
100
AcDbSymbolTableRecord
100
AcDbBlockTableRecord
  2
SW_CENTERMARKSYMBOL_0
340
0
102
{BLKREFS
331
97
102
}
  0
BLOCK_RECORD
  5
DE
330
1
100
AcDbSymbolTableRecord
100
AcDbBlockTableRecord
  2
SW_CENTERMARKSYMBOL_1
340
0
102
{BLKREFS
331
E9
102
}
  0
BLOCK_RECORD
  5
EA
330
1
100
AcDbSymbolTableRecord
100
AcDbBlockTableRecord
  2
SW_CENTERMARKSYMBOL_2
340
0
102
{BLKREFS
331
F5
102
}
  0
ENDTAB
  0
ENDSEC
  0
SECTION
  2
BLOCKS
  0
BLOCK
  5
20
330
1F
100
AcDbEntity
  8
0
100
AcDbBlockBegin
  2
*Model_Space
 70
     0
 10
0.0
 20
0.0
 30
0.0
  3
*Model_Space
  1

  0
ENDBLK
  5
21
330
1F
100
AcDbEntity
  8
0
100
AcDbBlockEnd
  0
BLOCK
  5
1C
330
1B
100
AcDbEntity
 67
     1
  8
0
100
AcDbBlockBegin
  2
*Paper_Space
 70
     0
 10
0.0
 20
0.0
 30
0.0
  3
*Paper_Space
  1

  0
ENDBLK
  5
1D
330
1B
100
AcDbEntity
 67
     1
  8
0
100
AcDbBlockEnd
  0
BLOCK
  5
24
330
23
100
AcDbEntity
  8
0
100
AcDbBlockBegin
  2
*Paper_Space0
 70
     0
 10
0.0
 20
0.0
 30
0.0
  3
*Paper_Space0
  1

  0
ENDBLK
  5
25
330
23
100
AcDbEntity
  8
0
100
AcDbBlockEnd
  0
BLOCK
  5
8D
330
8C
100
AcDbEntity
  8
0
100
AcDbBlockBegin
  2
SW_CENTERMARKSYMBOL_0
 70
     0
 10
0.0
 20
0.0
 30
0.0
  3
SW_CENTERMARKSYMBOL_0
  1

  0
LINE
  5
8F
330
8C
100
AcDbEntity
  8
FORMAT
 62
     0
100
AcDbLine
 10
0.0
 20
0.0
 30
0.0
 11
0.0
 21
2.5
 31
0.0
  0
LINE
  5
90
330
8C
100
AcDbEntity
  8
FORMAT
 62
     0
100
AcDbLine
 10
0.0
 20
0.0
 30
0.0
 11
-2.5
 21
0.0
 31
0.0
  0
LINE
  5
91
330
8C
100
AcDbEntity
  8
FORMAT
 62
     0
100
AcDbLine
 10
0.0
 20
0.0
 30
0.0
 11
0.0
 21
-2.5
 31
0.0
  0
LINE
  5
92
330
8C
100
AcDbEntity
  8
FORMAT
 62
     0
100
AcDbLine
 10
0.0
 20
0.0
 30
0.0
 11
2.5
 21
0.0
 31
0.0
  0
LINE
  5
93
330
8C
100
AcDbEntity
  8
FORMAT
 62
     0
100
AcDbLine
 10
0.0
 20
5.0
 30
0.0
 11
0.0
 21
65.4
 31
0.0
  0
LINE
  5
94
330
8C
100
AcDbEntity
  8
FORMAT
 62
     0
100
AcDbLine
 10
-5.0
 20
0.0
 30
0.0
 11
-65.4
 21
0.0
 31
0.0
  0
LINE
  5
95
330
8C
100
AcDbEntity
  8
FORMAT
 62
     0
100
AcDbLine
 10
0.0
 20
-5.0
 30
0.0
 11
0.0
 21
-65.4
 31
0.0
  0
LINE
  5
96
330
8C
100
AcDbEntity
  8
FORMAT
 62
     0
100
AcDbLine
 10
5.0
 20
0.0
 30
0.0
 11
65.4
 21
0.0
 31
0.0
  0
ENDBLK
  5
8E
330
8C
100
AcDbEntity
  8
0
100
AcDbBlockEnd
  0
BLOCK
  5
DF
330
DE
100
AcDbEntity
  8
0
100
AcDbBlockBegin
  2
SW_CENTERMARKSYMBOL_1
 70
     0
 10
0.0
 20
0.0
 30
0.0
  3
SW_CENTERMARKSYMBOL_1
  1

  0
LINE
  5
E1
330
DE
100
AcDbEntity
  8
FORMAT
 62
     0
100
AcDbLine
 10
0.0
 20
0.0
 30
0.0
 11
0.0
 21
2.5
 31
0.0
  0
LINE
  5
E2
330
DE
100
AcDbEntity
  8
FORMAT
 62
     0
100
AcDbLine
 10
0.0
 20
0.0
 30
0.0
 11
-2.5
 21
0.0
 31
0.0
  0
LINE
  5
E3
330
DE
100
AcDbEntity
  8
FORMAT
 62
     0
100
AcDbLine
 10
0.0
 20
0.0
 30
0.0
 11
0.0
 21
-2.5
 31
0.0
  0
LINE
  5
E4
330
DE
100
AcDbEntity
  8
FORMAT
 62
     0
100
AcDbLine
 10
0.0
 20
0.0
 30
0.0
 11
2.5
 21
0.0
 31
0.0
  0
LINE
  5
E5
330
DE
100
AcDbEntity
  8
FORMAT
 62
     0
100
AcDbLine
 10
0.0
 20
5.0
 30
0.0
 11
0.0
 21
9.5
 31
0.0
  0
LINE
  5
E6
330
DE
100
AcDbEntity
  8
FORMAT
 62
     0
100
AcDbLine
 10
-5.0
 20
0.0
 30
0.0
 11
-9.5
 21
0.0
 31
0.0
  0
LINE
  5
E7
330
DE
100
AcDbEntity
  8
FORMAT
 62
     0
100
AcDbLine
 10
0.0
 20
-5.0
 30
0.0
 11
0.0
 21
-9.5
 31
0.0
  0
LINE
  5
E8
330
DE
100
AcDbEntity
  8
FORMAT
 62
     0
100
AcDbLine
 10
5.0
 20
0.0
 30
0.0
 11
9.5
 21
0.0
 31
0.0
  0
ENDBLK
  5
E0
330
DE
100
AcDbEntity
  8
0
100
AcDbBlockEnd
  0
BLOCK
  5
EB
330
EA
100
AcDbEntity
  8
0
100
AcDbBlockBegin
  2
SW_CENTERMARKSYMBOL_2
 70
     0
 10
0.0
 20
0.0
 30
0.0
  3
SW_CENTERMARKSYMBOL_2
  1

  0
LINE
  5
ED
330
EA
100
AcDbEntity
  8
FORMAT
 62
     0
100
AcDbLine
 10
0.0
 20
0.0
 30
0.0
 11
0.0
 21
2.5
 31
0.0
  0
LINE
  5
EE
330
EA
100
AcDbEntity
  8
FORMAT
 62
     0
100
AcDbLine
 10
0.0
 20
0.0
 30
0.0
 11
-2.5
 21
0.0
 31
0.0
  0
LINE
  5
EF
330
EA
100
AcDbEntity
  8
FORMAT
 62
     0
100
AcDbLine
 10
0.0
 20
0.0
 30
0.0
 11
0.0
 21
-2.5
 31
0.0
  0
LINE
  5
F0
330
EA
100
AcDbEntity
  8
FORMAT
 62
     0
100
AcDbLine
 10
0.0
 20
0.0
 30
0.0
 11
2.5
 21
0.0
 31
0.0
  0
LINE
  5
F1
330
EA
100
AcDbEntity
  8
FORMAT
 62
     0
100
AcDbLine
 10
0.0
 20
5.0
 30
0.0
 11
0.0
 21
9.5
 31
0.0
  0
LINE
  5
F2
330
EA
100
AcDbEntity
  8
FORMAT
 62
     0
100
AcDbLine
 10
-5.0
 20
0.0
 30
0.0
 11
-9.5
 21
0.0
 31
0.0
  0
LINE
  5
F3
330
EA
100
AcDbEntity
  8
FORMAT
 62
     0
100
AcDbLine
 10
0.0
 20
-5.0
 30
0.0
 11
0.0
 21
-9.5
 31
0.0
  0
LINE
  5
F4
330
EA
100
AcDbEntity
  8
FORMAT
 62
     0
100
AcDbLine
 10
5.0
 20
0.0
 30
0.0
 11
9.5
 21
0.0
 31
0.0
  0
ENDBLK
  5
EC
330
EA
100
AcDbEntity
  8
0
100
AcDbBlockEnd
  0
ENDSEC
  0
SECTION
  2
ENTITIES
  0
LINE
  5
83
330
1F
100
AcDbEntity
  8
0
  6
Continuous
 62
     7
370
    25
100
AcDbLine
 10
137.6070913462
 20
169.4521270547
 30
0.0
 11
137.6070913462
 21
183.9549519231
 31
0.0
  0
LINE
  5
84
330
1F
100
AcDbEntity
  8
0
  6
Continuous
 62
     7
370
    25
100
AcDbLine
 10
123.6070913462
 20
183.9549519231
 30
0.0
 11
123.6070913462
 21
169.4502363638
 31
0.0
  0
CIRCLE
  5
85
330
1F
100
AcDbEntity
  8
0
  6
Continuous
 62
     7
370
    25
100
AcDbCircle
 10
130.6070913462
 20
95.8949519231
 30
0.0
 40
73.54999999999995
  0
ARC
  5
86
330
1F
100
AcDbEntity
  8
0
  6
Continuous
 62
     7
370
    25
100
AcDbCircle
 10
130.6070913462
 20
95.8949519231
 30
0.0
 40
74.54999999999988
100
AcDbArc
 50
95.3878223067
 51
180.0
  0
ARC
  5
87
330
1F
100
AcDbEntity
  8
0
  6
Continuous
 62
     7
370
    25
100
AcDbCircle
 10
130.6070913462
 20
95.8949519231
 30
0.0
 40
74.5499999999999
100
AcDbArc
 50
180.0
 51
84.6121776933
  0
SPLINE
  5
88
330
1F
100
AcDbEntity
  8
0
  6
Continuous
 62
     7
370
    25
100
AcDbSpline
210
0.0
220
0.0
230
1.0
 70
     8
 71
     3
 72
    21
 73
    17
 74
     0
 42
0.00000001
 43
0.00000001
 40
0.0
 40
0.0
 40
0.0
 40
0.0
 40
0.0705106235021664
 40
0.1430641022607562
 40
0.213575265956841
 40
0.286136440352774
 40
0.3565516889660296
 40
0.4290135320999127
 40
0.4993594782049466
 40
0.5717390586177774
 40
0.6422014422012741
 40
0.7147023327152682
 40
0.785238851601915
 40
0.8578293723730586
 40
0.9282097254480471
 40
1.0
 40
1.0
 40
1.0
 40
1.0
 10
135.5677414956645
 20
169.4849502922316
 30
0.0
 10
135.2808064378673
 20
169.496129899866
 30
0.0
 10
134.6986231523993
 20
169.5188130141317
 30
0.0
 10
133.6764329472408
 20
169.5517964677598
 30
0.0
 10
132.5673525202756
 20
169.5778852914918
 30
0.0
 10
131.4105145771336
 20
169.5931427205102
 30
0.0
 10
130.2214066464674
 20
169.5955220927526
 30
0.0
 10
129.0547090260638
 20
169.5846913823377
 30
0.0
 10
127.922164828018
 20
169.5620564172182
 30
0.0
 10
126.8753807007781
 20
169.5312681555151
 30
0.0
 10
125.9245954005205
 20
169.4964171800829
 30
0.0
 10
125.1139036601698
 20
169.4634870565063
 30
0.0
 10
124.4509417767261
 20
169.437424133521
 30
0.0
 10
123.9720666511592
 20
169.4241528419438
 30
0.0
 10
123.6644719587683
 20
169.4256038556236
 30
0.0
 10
123.6269381550264
 20
169.4419714214285
 30
0.0
 10
123.6079851397616
 20
169.4502363637903
 30
0.0
  0
SPLINE
  5
89
330
1F
100
AcDbEntity
  8
0
  6
Continuous
 62
     7
370
    25
100
AcDbSpline
210
0.0
220
0.0
230
1.0
 70
     8
 71
     3
 72
    12
 73
     8
 74
     0
 42
0.00000001
 43
0.00000001
 40
0.0
 40
0.0
 40
0.0
 40
0.0
 40
0.0724678569968211
 40
0.2909873228662683
 40
0.5025419902890083
 40
0.7202213608407384
 40
1.0
 40
1.0
 40
1.0
 40
1.0
 10
137.5853731995563
 20
169.452127054683
 30
0.0
 10
137.5912783629323
 20
169.4482338407698
 30
0.0
 10
137.6149899469792
 20
169.4326010355384
 30
0.0
 10
137.4535677662031
 20
169.4243108871331
 30
0.0
 10
137.0985313644756
 20
169.4268326477704
 30
0.0
 10
136.5067635783426
 20
169.4469435840894
 30
0.0
 10
135.9057573635653
 20
169.4712691758066
 30
0.0
 10
135.5677414956645
 20
169.4849502922316
 30
0.0
  0
CIRCLE
  5
8A
330
1F
100
AcDbEntity
  8
0
  6
Continuous
 62
     7
370
    25
100
AcDbCircle
 10
130.6070913462
 20
95.8949519231
 30
0.0
 40
62.89999999999996
  0
LINE
  5
8B
330
1F
100
AcDbEntity
  8
0
  6
Continuous
 62
     7
370
    25
100
AcDbLine
 10
137.6070913462
 20
183.9549519231
 30
0.0
 11
123.6070913462
 21
183.9549519231
 31
0.0
  0
INSERT
  5
97
330
1F
100
AcDbEntity
  8
FORMAT
 62
     7
100
AcDbBlockReference
  2
SW_CENTERMARKSYMBOL_0
 10
130.6070913462
 20
95.8949519231
 30
0.0
  0
ARC
  5
98
330
1F
100
AcDbEntity
  8
0
  6
Continuous
 62
     7
370
    25
100
AcDbCircle
 10
354.5255634789
 20
-1910.1800480769
 30
0.0
 40
2080.625000000001
100
AcDbArc
 50
91.6380665322
 51
91.7764709905
  0
ARC
  5
99
330
1F
100
AcDbEntity
  8
0
  6
Continuous
 62
     7
370
    25
100
AcDbCircle
 10
354.5255634789
 20
-1910.1800480769
 30
0.0
 40
2080.625000000001
100
AcDbArc
 50
90.0
 51
91.2536100818
  0
ARC
  5
9A
330
1F
100
AcDbEntity
  8
0
  6
Continuous
 62
     7
370
    25
100
AcDbCircle
 10
354.5255634789
 20
2101.9699519231
 30
0.0
 40
2080.625
100
AcDbArc
 50
268.2235290095
 51
270.0
  0
LINE
  5
9B
330
1F
100
AcDbEntity
  8
0
  6
Continuous
 62
     7
370
    25
100
AcDbLine
 10
354.5255634789
 20
21.3449519231
 30
0.0
 11
379.5255634789
 21
21.3449519231
 31
0.0
  0
LINE
  5
9C
330
1F
100
AcDbEntity
  8
0
  6
Continuous
 62
     7
370
    25
100
AcDbLine
 10
379.5255634789
 20
170.4449519231
 30
0.0
 11
354.5255634789
 21
170.4449519231
 31
0.0
  0
ARC
  5
9D
330
1F
100
AcDbEntity
  8
0
  6
Continuous
 62
     7
370
    25
100
AcDbCircle
 10
379.5255634789
 20
-1910.1800480769
 30
0.0
 40
2080.625000000001
100
AcDbArc
 50
88.746311091
 51
90.0
  0
ARC
  5
9E
330
1F
100
AcDbEntity
  8
0
  6
Continuous
 62
     7
370
    25
100
AcDbCircle
 10
379.5255634789
 20
-1910.1800480769
 30
0.0
 40
2080.625000000001
100
AcDbArc
 50
88.2235290095
 51
88.3618598247
  0
ARC
  5
9F
330
1F
100
AcDbEntity
  8
0
  6
Continuous
 62
     7
370
    25
100
AcDbCircle
 10
379.5255634789
 20
2101.9699519231
 30
0.0
 40
2080.625
100
AcDbArc
 50
270.0
 51
271.7764709905
  0
LINE
  5
A0
330
1F
100
AcDbEntity
  8
0
  6
Continuous
 62
     7
370
    25
100
AcDbLine
 10
309.0255634789
 20
169.9451079094
 30
0.0
 11
309.0255634789
 21
183.9549519231
 31
0.0
  0
LINE
  5
A1
330
1F
100
AcDbEntity
  8
0
  6
Continuous
 62
     7
370
    25
100
AcDbLine
 10
295.0255634789
 20
183.9549519231
 30
0.0
 11
295.0255634789
 21
169.5924303521
 31
0.0
  0
LINE
  5
A2
330
1F
100
AcDbEntity
  8
0
  6
Continuous
 62
     7
370
    25
100
AcDbLine
 10
439.0255634789
 20
169.5926217997
 30
0.0
 11
439.0255634789
 21
183.9549519231
 31
0.0
  0
LINE
  5
A3
330
1F
100
AcDbEntity
  8
0
  6
Continuous
 62
     7
370
    25
100
AcDbLine
 10
425.0255634789
 20
183.9549519231
 30
0.0
 11
425.0255634789
 21
169.9447865646
 31
0.0
  0
LINE
  5
A4
330
1F
100
AcDbEntity
  8
0
  6
Continuous
 62
     7
370
    25
100
AcDbLine
 10
290.0255634789
 20
95.8949519231
 30
0.0
 11
290.0255634789
 21
169.4449519231
 31
0.0
  0
LINE
  5
A5
330
1F
100
AcDbEntity
  8
0
  6
Continuous
 62
     7
370
    25
100
AcDbLine
 10
290.0255634789
 20
22.3449519231
 30
0.0
 11
290.0255634789
 21
95.8949519231
 31
0.0
  0
SPLINE
  5
A6
330
1F
100
AcDbEntity
  8
0
  6
Continuous
 62
     7
370
    25
100
AcDbSpline
210
0.0
220
0.0
230
1.0
 70
     8
 71
     3
 72
    27
 73
    23
 74
     0
 42
0.00000001
 43
0.00000001
 40
0.0
 40
0.0
 40
0.0
 40
0.0
 40
0.0151365707174664
 40
0.0693590237750071
 40
0.1219124323245831
 40
0.1759782913160459
 40
0.2287486689205668
 40
0.2830329036249651
 40
0.3360854938980455
 40
0.3906759563016893
 40
0.4437228430600144
 40
0.4983217020123937
 40
0.551130015688707
 40
0.6054774841888758
 40
0.6581637891264867
 40
0.7123718277665846
 40
0.7651726348961408
 40
0.8194973080850678
 40
0.8724197640126357
 40
0.9268794634737952
 40
0.9797516762002579
 40
1.0
 40
1.0
 40
1.0
 40
1.0
 10
309.0059202958861
 20
169.945103858732
 30
0.0
 10
309.011627210504
 20
169.9457667182072
 30
0.0
 10
309.0377775211689
 20
169.9488040829418
 30
0.0
 10
308.8857254122113
 20
169.9310941111271
 30
0.0
 10
308.5469456560617
 20
169.892758191356
 30
0.0
 10
308.0150459554702
 20
169.8355050098479
 30
0.0
 10
307.3130053482986
 20
169.7656388439216
 30
0.0
 10
306.465899521401
 20
169.6898553558283
 30
0.0
 10
305.4834836073516
 20
169.6137688625257
 30
0.0
 10
304.4097224376816
 20
169.5451039108918
 30
0.0
 10
303.2572932920373
 20
169.4883368970009
 30
0.0
 10
302.0813781514925
 20
169.4485084703491
 30
0.0
 10
300.8944783406235
 20
169.4268723665035
 30
0.0
 10
299.7527195525215
 20
169.423673837336
 30
0.0
 10
298.6660505960193
 20
169.4366586860422
 30
0.0
 10
297.6838163295662
 20
169.4618599462128
 30
0.0
 10
296.8149229260852
 20
169.4947780171743
 30
0.0
 10
296.1002694516919
 20
169.5293381510567
 30
0.0
 10
295.5436635276297
 20
169.5609331297833
 30
0.0
 10
295.1881215164788
 20
169.583236566506
 30
0.0
 10
295.0204671129848
 20
169.5943478614497
 30
0.0
 10
295.0431865850478
 20
169.5928454767082
 30
0.0
 10
295.0494779943938
 20
169.5924294407467
 30
0.0
  0
LINE
  5
A7
330
1F
100
AcDbEntity
  8
0
  6
Continuous
 62
     7
370
    25
100
AcDbLine
 10
444.0255634789
 20
95.8949519231
 30
0.0
 11
444.0255634789
 21
169.4449519231
 31
0.0
  0
LINE
  5
A8
330
1F
100
AcDbEntity
  8
0
  6
Continuous
 62
     7
370
    25
100
AcDbLine
 10
444.0255634789
 20
22.3449519231
 30
0.0
 11
444.0255634789
 21
95.8949519231
 31
0.0
  0
SPLINE
  5
A9
330
1F
100
AcDbEntity
  8
0
  6
Continuous
 62
     7
370
    25
100
AcDbSpline
210
0.0
220
0.0
230
1.0
 70
     8
 71
     3
 72
    27
 73
    23
 74
     0
 42
0.00000001
 43
0.00000001
 40
0.0
 40
0.0
 40
0.0
 40
0.0
 40
0.0169728901927591
 40
0.0713414365707782
 40
0.1241224129841256
 40
0.1784292371595166
 40
0.2312975772966413
 40
0.2856954211532323
 40
0.3386193854436114
 40
0.3930844794084242
 40
0.4458912715733563
 40
0.5002368465047364
 40
0.5529238771825883
 40
0.6071331274581143
 40
0.6599332941780726
 40
0.7142508493703812
 40
0.7672906828398847
 40
0.8218664884792681
 40
0.8749260251275567
 40
0.9295398231062476
 40
0.9823214768699428
 40
1.0
 40
1.0
 40
1.0
 40
1.0
 10
439.0045259525374
 20
169.5926201997805
 30
0.0
 10
439.0104137228503
 20
169.5930096067698
 30
0.0
 10
439.0351615405493
 20
169.594646384815
 30
0.0
 10
438.8766890928343
 20
169.5841239133067
 30
0.0
 10
438.5283712451835
 20
169.562211817685
 30
0.0
 10
437.9864631975087
 20
169.531226196937
 30
0.0
 10
437.2736728282227
 20
169.4964326513381
 30
0.0
 10
436.4175270910677
 20
169.4634676967664
 30
0.0
 10
435.4281368347893
 20
169.4374850732009
 30
0.0
 10
434.3515511620286
 20
169.4239237006671
 30
0.0
 10
433.1996265091122
 20
169.4264431257086
 30
0.0
 10
432.0269483141592
 20
169.4470592556525
 30
0.0
 10
430.8450086684949
 20
169.4862599745092
 30
0.0
 10
429.7076065014893
 20
169.5414087207
 30
0.0
 10
428.6252843722997
 20
169.6097095917339
 30
0.0
 10
427.6463254688647
 20
169.6847642704321
 30
0.0
 10
426.7812404986935
 20
169.7615284215902
 30
0.0
 10
426.0717246951989
 20
169.8317999787616
 30
0.0
 10
425.5217259500926
 20
169.8907940013409
 30
0.0
 10
425.17589982833
 20
169.9298869274164
 30
0.0
 10
425.0166484370578
 20
169.9484204330821
 30
0.0
 10
425.0416787151983
 20
169.9455132543478
 30
0.0
 10
425.0479588349846
 20
169.9447838405318
 30
0.0
  0
LINE
  5
AA
330
1F
100
AcDbEntity
  8
0
  6
Continuous
 62
     7
370
    25
100
AcDbLine
 10
309.0255634789
 20
183.9549519231
 30
0.0
 11
295.0255634789
 21
183.9549519231
 31
0.0
  0
LINE
  5
AB
330
1F
100
AcDbEntity
  8
0
  6
Continuous
 62
     7
370
    25
100
AcDbLine
 10
439.0255634789
 20
183.9549519231
 30
0.0
 11
425.0255634789
 21
183.9549519231
 31
0.0
  0
LINE
  5
AC
330
1F
100
AcDbEntity
  8
0
  6
Continuous
 62
     1
370
    25
100
AcDbLine
 10
354.5255634789
 20
95.8949519231
 30
0.0
 11
354.5255634789
 21
170.4449519231
 31
0.0
  0
LINE
  5
AD
330
1F
100
AcDbEntity
  8
0
  6
Continuous
 62
     1
370
    25
100
AcDbLine
 10
354.5255634789
 20
21.3449519231
 30
0.0
 11
354.5255634789
 21
95.8949519231
 31
0.0
  0
LINE
  5
AE
330
1F
100
AcDbEntity
  8
0
  6
Continuous
 62
     1
370
    25
100
AcDbLine
 10
379.5255634789
 20
95.8949519231
 30
0.0
 11
379.5255634789
 21
170.4449519231
 31
0.0
  0
LINE
  5
AF
330
1F
100
AcDbEntity
  8
0
  6
Continuous
 62
     1
370
    25
100
AcDbLine
 10
379.5255634789
 20
21.3449519231
 30
0.0
 11
379.5255634789
 21
95.8949519231
 31
0.0
  0
ARC
  5
B0
330
1F
100
AcDbEntity
  8
0
  6
Continuous
 62
     7
370
    25
100
AcDbCircle
 10
2136.6820913462
 20
312.5141593933
 30
0.0
 40
2080.625000000001
100
AcDbArc
 50
180.0
 51
181.7764709905
  0
ARC
  5
B1
330
1F
100
AcDbEntity
  8
0
  6
Continuous
 62
     7
370
    25
100
AcDbCircle
 10
-1875.4679086538
 20
312.5141593933
 30
0.0
 40
2080.625000000001
100
AcDbArc
 50
358.2235290095
 51
0.0
  0
LINE
  5
B2
330
1F
100
AcDbEntity
  8
0
  6
Continuous
 62
     7
370
    25
100
AcDbLine
 10
205.1570913462
 20
312.5141593933
 30
0.0
 11
205.1570913462
 21
337.5141593933
 31
0.0
  0
LINE
  5
B3
330
1F
100
AcDbEntity
  8
0
  6
Continuous
 62
     7
370
    25
100
AcDbLine
 10
56.0570913462
 20
337.5141593933
 30
0.0
 11
56.0570913462
 21
312.5141593933
 31
0.0
  0
ARC
  5
B4
330
1F
100
AcDbEntity
  8
0
  6
Continuous
 62
     7
370
    25
100
AcDbCircle
 10
2136.6820913462
 20
337.5141593933
 30
0.0
 40
2080.625000000001
100
AcDbArc
 50
178.2235290095
 51
180.0
  0
ARC
  5
B5
330
1F
100
AcDbEntity
  8
0
  6
Continuous
 62
     7
370
    25
100
AcDbCircle
 10
-1875.4679086538
 20
337.5141593933
 30
0.0
 40
2080.625000000001
100
AcDbArc
 50
0.0
 51
1.7764709905
  0
LINE
  5
B6
330
1F
100
AcDbEntity
  8
0
  6
Continuous
 62
     7
370
    25
100
AcDbLine
 10
204.1570913462
 20
248.0141593933
 30
0.0
 11
57.0570913462
 21
248.0141593933
 31
0.0
  0
LINE
  5
B7
330
1F
100
AcDbEntity
  8
0
  6
Continuous
 62
     7
370
    25
100
AcDbLine
 10
204.1570913462
 20
402.0141593933
 30
0.0
 11
57.0570913462
 21
402.0141593933
 31
0.0
  0
LINE
  5
B8
330
1F
100
AcDbEntity
  8
0
  6
Continuous
 62
     1
370
    25
100
AcDbLine
 10
205.1570913462
 20
312.5141593933
 30
0.0
 11
56.0570913462
 21
312.5141593933
 31
0.0
  0
LINE
  5
B9
330
1F
100
AcDbEntity
  8
0
  6
Continuous
 62
     1
370
    25
100
AcDbLine
 10
205.1570913462
 20
337.5141593933
 30
0.0
 11
56.0570913462
 21
337.5141593933
 31
0.0
  0
ARC
  5
BA
330
1F
100
AcDbEntity
  8
0
  6
Continuous
 62
     7
370
    25
100
AcDbCircle
 10
-114.074850104
 20
2101.9699519231
 30
0.0
 40
2080.625
100
AcDbArc
 50
270.0
 51
271.7764709905
  0
ARC
  5
BB
330
1F
100
AcDbEntity
  8
0
  6
Continuous
 62
     7
370
    25
100
AcDbCircle
 10
-114.074850104
 20
-1910.1800480769
 30
0.0
 40
2080.625000000001
100
AcDbArc
 50
88.7463871558
 51
90.0
  0
ARC
  5
BC
330
1F
100
AcDbEntity
  8
0
  6
Continuous
 62
     7
370
    25
100
AcDbCircle
 10
-114.074850104
 20
-1910.1800480769
 30
0.0
 40
2080.625000000001
100
AcDbArc
 50
88.2235290095
 51
88.3619388501
  0
LINE
  5
BD
330
1F
100
AcDbEntity
  8
0
  6
Continuous
 62
     7
370
    25
100
AcDbLine
 10
-114.074850104
 20
170.4449519231
 30
0.0
 11
-139.074850104
 21
170.4449519231
 31
0.0
  0
LINE
  5
BE
330
1F
100
AcDbEntity
  8
0
  6
Continuous
 62
     7
370
    25
100
AcDbLine
 10
-139.074850104
 20
21.3449519231
 30
0.0
 11
-114.074850104
 21
21.3449519231
 31
0.0
  0
ARC
  5
BF
330
1F
100
AcDbEntity
  8
0
  6
Continuous
 62
     7
370
    25
100
AcDbCircle
 10
-139.074850104
 20
2101.9699519231
 30
0.0
 40
2080.625
100
AcDbArc
 50
268.2235290095
 51
270.0
  0
ARC
  5
C0
330
1F
100
AcDbEntity
  8
0
  6
Continuous
 62
     7
370
    25
100
AcDbCircle
 10
-139.074850104
 20
-1910.1800480769
 30
0.0
 40
2080.625000000001
100
AcDbArc
 50
91.6381456562
 51
91.7764709905
  0
ARC
  5
C1
330
1F
100
AcDbEntity
  8
0
  6
Continuous
 62
     7
370
    25
100
AcDbCircle
 10
-139.074850104
 20
-1910.1800480769
 30
0.0
 40
2080.625000000001
100
AcDbArc
 50
90.0
 51
91.2536861616
  0
LINE
  5
C2
330
1F
100
AcDbEntity
  8
0
  6
Continuous
 62
     7
370
    25
100
AcDbLine
 10
-54.574850104
 20
169.5924303521
 30
0.0
 11
-54.574850104
 21
183.9549519231
 31
0.0
  0
LINE
  5
C3
330
1F
100
AcDbEntity
  8
0
  6
Continuous
 62
     7
370
    25
100
AcDbLine
 10
-68.574850104
 20
183.9549519231
 30
0.0
 11
-68.574850104
 21
169.9451079094
 31
0.0
  0
LINE
  5
C4
330
1F
100
AcDbEntity
  8
0
  6
Continuous
 62
     7
370
    25
100
AcDbLine
 10
-184.574850104
 20
169.9447865646
 30
0.0
 11
-184.574850104
 21
183.9549519231
 31
0.0
  0
LINE
  5
C5
330
1F
100
AcDbEntity
  8
0
  6
Continuous
 62
     7
370
    25
100
AcDbLine
 10
-198.574850104
 20
183.9549519231
 30
0.0
 11
-198.574850104
 21
169.5926217997
 31
0.0
  0
LINE
  5
C6
330
1F
100
AcDbEntity
  8
0
  6
Continuous
 62
     7
370
    25
100
AcDbLine
 10
-49.574850104
 20
169.4449519231
 30
0.0
 11
-49.574850104
 21
22.3449519231
 31
0.0
  0
SPLINE
  5
C7
330
1F
100
AcDbEntity
  8
0
  6
Continuous
 62
     7
370
    25
100
AcDbSpline
210
0.0
220
0.0
230
1.0
 70
     8
 71
     3
 72
    12
 73
     8
 74
     0
 42
0.00000001
 43
0.00000001
 40
0.0
 40
0.0
 40
0.0
 40
0.0
 40
0.2097326282173902
 40
0.4255223487629872
 40
0.635262913334892
 40
0.8511367297399918
 40
1.0
 40
1.0
 40
1.0
 40
1.0
 10
-66.48922757768914
 20
169.7326436745336
 30
0.0
 10
-66.75190366480406
 20
169.7570032859931
 30
0.0
 10
-67.28484194199558
 20
169.8064260161198
 30
0.0
 10
-67.88536021720014
 20
169.8697611940035
 30
0.0
 10
-68.31508052156444
 20
169.9172944024072
 30
0.0
 10
-68.54937087741378
 20
169.9444177946038
 30
0.0
 10
-68.55351931074586
 20
169.9449054634277
 30
0.0
 10
-68.55521244636284
 20
169.9451044998804
 30
0.0
  0
SPLINE
  5
C8
330
1F
100
AcDbEntity
  8
0
  6
Continuous
 62
     7
370
    25
100
AcDbSpline
210
0.0
220
0.0
230
1.0
 70
     8
 71
     3
 72
    21
 73
    17
 74
     0
 42
0.00000001
 43
0.00000001
 40
0.0
 40
0.0
 40
0.0
 40
0.0
 40
0.0456977640046005
 40
0.1163046038912683
 40
0.1889559489601406
 40
0.2596257673450287
 40
0.3323374691109733
 40
0.4031325076632961
 40
0.4759844592340364
 40
0.5466990350335524
 40
0.6194763393037761
 40
0.6899864590889747
 40
0.7625407443434765
 40
0.8330809614823755
 40
0.9056494706940441
 40
1.0
 40
1.0
 40
1.0
 40
1.0
 10
-54.59876534363578
 20
169.5924293929416
 30
0.0
 10
-54.5971279469078
 20
169.5925348980736
 30
0.0
 10
-54.59296063627438
 20
169.5928034173952
 30
0.0
 10
-54.81123473788807
 20
169.5784648023337
 30
0.0
 10
-55.21794272211647
 20
169.5534843242365
 30
0.0
 10
-55.81744014616989
 20
169.5206169019527
 30
0.0
 10
-56.57208026565746
 20
169.4859867878764
 30
0.0
 10
-57.47725891753853
 20
169.4543906478989
 30
0.0
 10
-58.49036760528714
 20
169.4318729309023
 30
0.0
 10
-59.60051327834215
 20
169.4228321688721
 30
0.0
 10
-60.75492540175423
 20
169.4307460126228
 30
0.0
 10
-61.94147449329926
 20
169.4572870221575
 30
0.0
 10
-63.10622254297309
 20
169.5014374418727
 30
0.0
 10
-64.23473527731626
 20
169.5613874859802
 30
0.0
 10
-65.40659691313049
 20
169.6399394696111
 30
0.0
 10
-66.09826441617412
 20
169.6991660258499
 30
0.0
 10
-66.48922757768914
 20
169.7326436745336
 30
0.0
  0
LINE
  5
C9
330
1F
100
AcDbEntity
  8
0
  6
Continuous
 62
     7
370
    25
100
AcDbLine
 10
-203.574850104
 20
169.4449519231
 30
0.0
 11
-203.574850104
 21
22.3449519231
 31
0.0
  0
SPLINE
  5
CA
330
1F
100
AcDbEntity
  8
0
  6
Continuous
 62
     7
370
    25
100
AcDbSpline
210
0.0
220
0.0
230
1.0
 70
     8
 71
     3
 72
    12
 73
     8
 74
     0
 42
0.00000001
 43
0.00000001
 40
0.0
 40
0.0
 40
0.0
 40
0.0
 40
0.2111519306312893
 40
0.4284214192980829
 40
0.639574967600343
 40
0.8568675017119468
 40
1.0
 40
1.0
 40
1.0
 40
1.0
 10
-196.5136708230095
 20
169.4849502922316
 30
0.0
 10
-196.77527912821
 20
169.4961231659379
 30
0.0
 10
-197.3060751340957
 20
169.5187926172499
 30
0.0
 10
-197.9018445516533
 20
169.5518798283835
 30
0.0
 10
-198.3254054871472
 20
169.5775790767663
 30
0.0
 10
-198.5526367293601
 20
169.5925367276193
 30
0.0
 10
-198.5534793102271
 20
169.5925965367309
 30
0.0
 10
-198.5538139171319
 20
169.5926202882099
 30
0.0
  0
SPLINE
  5
CB
330
1F
100
AcDbEntity
  8
0
  6
Continuous
 62
     7
370
    25
100
AcDbSpline
210
0.0
220
0.0
230
1.0
 70
     8
 71
     3
 72
    21
 73
    17
 74
     0
 42
0.00000001
 43
0.00000001
 40
0.0
 40
0.0
 40
0.0
 40
0.0
 40
0.0489023365645239
 40
0.1190433964877102
 40
0.191210579152978
 40
0.2615144105389514
 40
0.3338335794052107
 40
0.4045490919170852
 40
0.4773064181150006
 40
0.5481556794060143
 40
0.6210743428334748
 40
0.6916557199207516
 40
0.7642992696835177
 40
0.8346274756825696
 40
0.9069917482387252
 40
1.0
 40
1.0
 40
1.0
 40
1.0
 10
-184.597249418274
 20
169.9447833812496
 30
0.0
 10
-184.5973284056704
 20
169.9447702295828
 30
0.0
 10
-184.5975206853979
 20
169.9447382143623
 30
0.0
 10
-184.8247572896163
 20
169.9184694064133
 30
0.0
 10
-185.2375716910947
 20
169.8725228188764
 30
0.0
 10
-185.8403057168413
 20
169.8093975156801
 30
0.0
 10
-186.5973357691423
 20
169.736816806699
 30
0.0
 10
-187.5043054329077
 20
169.6597354763227
 30
0.0
 10
-188.5205592046126
 20
169.5861725065466
 30
0.0
 10
-189.6346464629437
 20
169.521160455413
 30
0.0
 10
-190.7938440010188
 20
169.4709078181561
 30
0.0
 10
-191.9848774896201
 20
169.4377929505437
 30
0.0
 10
-193.1517972466335
 20
169.4235576299163
 30
0.0
 10
-194.2801923863313
 20
169.4270355365636
 30
0.0
 10
-195.4439203654005
 20
169.4468748940367
 30
0.0
 10
-196.1285972064928
 20
169.4712444497345
 30
0.0
 10
-196.5136708230095
 20
169.4849502922316
 30
0.0
  0
LINE
  5
CC
330
1F
100
AcDbEntity
  8
0
  6
Continuous
 62
     7
370
    25
100
AcDbLine
 10
-54.574850104
 20
183.9549519231
 30
0.0
 11
-68.574850104
 21
183.9549519231
 31
0.0
  0
LINE
  5
CD
330
1F
100
AcDbEntity
  8
0
  6
Continuous
 62
     7
370
    25
100
AcDbLine
 10
-184.574850104
 20
183.9549519231
 30
0.0
 11
-198.574850104
 21
183.9549519231
 31
0.0
  0
LINE
  5
CE
330
1F
100
AcDbEntity
  8
0
  6
Continuous
 62
     1
370
    25
100
AcDbLine
 10
-114.074850104
 20
170.4449519231
 30
0.0
 11
-114.074850104
 21
21.3449519231
 31
0.0
  0
LINE
  5
CF
330
1F
100
AcDbEntity
  8
0
  6
Continuous
 62
     1
370
    25
100
AcDbLine
 10
-139.074850104
 20
170.4449519231
 30
0.0
 11
-139.074850104
 21
21.3449519231
 31
0.0
  0
ARC
  5
D0
330
1F
100
AcDbEntity
  8
0
  6
Continuous
 62
     7
370
    25
100
AcDbCircle
 10
-1875.4679086538
 20
-105.4391405632
 30
0.0
 40
2080.625000000001
100
AcDbArc
 50
0.0
 51
1.7764709905
  0
ARC
  5
D1
330
1F
100
AcDbEntity
  8
0
  6
Continuous
 62
     7
370
    25
100
AcDbCircle
 10
2136.6820913462
 20
-105.4391405632
 30
0.0
 40
2080.625000000001
100
AcDbArc
 50
178.2235290095
 51
180.0
  0
LINE
  5
D2
330
1F
100
AcDbEntity
  8
0
  6
Continuous
 62
     7
370
    25
100
AcDbLine
 10
56.0570913462
 20
-105.4391405632
 30
0.0
 11
56.0570913462
 21
-130.4391405632
 31
0.0
  0
LINE
  5
D3
330
1F
100
AcDbEntity
  8
0
  6
Continuous
 62
     7
370
    25
100
AcDbLine
 10
205.1570913462
 20
-130.4391405632
 30
0.0
 11
205.1570913462
 21
-105.4391405632
 31
0.0
  0
ARC
  5
D4
330
1F
100
AcDbEntity
  8
0
  6
Continuous
 62
     7
370
    25
100
AcDbCircle
 10
-1875.4679086538
 20
-130.4391405632
 30
0.0
 40
2080.625000000001
100
AcDbArc
 50
358.2235290095
 51
0.0
  0
ARC
  5
D5
330
1F
100
AcDbEntity
  8
0
  6
Continuous
 62
     7
370
    25
100
AcDbCircle
 10
2136.6820913462
 20
-130.4391405632
 30
0.0
 40
2080.625000000001
100
AcDbArc
 50
180.0
 51
181.7764709905
  0
CIRCLE
  5
D6
330
1F
100
AcDbEntity
  8
0
  6
Continuous
 62
     7
370
    25
100
AcDbCircle
 10
130.6070913462
 20
-52.9391405632
 30
0.0
 40
7.000000000000028
  0
CIRCLE
  5
D7
330
1F
100
AcDbEntity
  8
0
  6
Continuous
 62
     7
370
    25
100
AcDbCircle
 10
130.6070913462
 20
-52.9391405632
 30
0.0
 40
5.000000000000014
  0
CIRCLE
  5
D8
330
1F
100
AcDbEntity
  8
0
  6
Continuous
 62
     7
370
    25
100
AcDbCircle
 10
130.6070913462
 20
-182.9391405632
 30
0.0
 40
7.0
  0
CIRCLE
  5
D9
330
1F
100
AcDbEntity
  8
0
  6
Continuous
 62
     7
370
    25
100
AcDbCircle
 10
130.6070913462
 20
-182.9391405632
 30
0.0
 40
5.0
  0
LINE
  5
DA
330
1F
100
AcDbEntity
  8
0
  6
Continuous
 62
     7
370
    25
100
AcDbLine
 10
57.0570913462
 20
-40.9391405632
 30
0.0
 11
204.1570913462
 21
-40.9391405632
 31
0.0
  0
LINE
  5
DB
330
1F
100
AcDbEntity
  8
0
  6
Continuous
 62
     7
370
    25
100
AcDbLine
 10
57.0570913462
 20
-194.9391405632
 30
0.0
 11
204.1570913462
 21
-194.9391405632
 31
0.0
  0
LINE
  5
DC
330
1F
100
AcDbEntity
  8
0
  6
Continuous
 62
     1
370
    25
100
AcDbLine
 10
56.0570913462
 20
-105.4391405632
 30
0.0
 11
205.1570913462
 21
-105.4391405632
 31
0.0
  0
LINE
  5
DD
330
1F
100
AcDbEntity
  8
0
  6
Continuous
 62
     1
370
    25
100
AcDbLine
 10
56.0570913462
 20
-130.4391405632
 30
0.0
 11
205.1570913462
 21
-130.4391405632
 31
0.0
  0
INSERT
  5
E9
330
1F
100
AcDbEntity
  8
FORMAT
 62
     7
100
AcDbBlockReference
  2
SW_CENTERMARKSYMBOL_1
 10
130.6070913462
 20
-52.9391405632
 30
0.0
  0
INSERT
  5
F5
330
1F
100
AcDbEntity
  8
FORMAT
 62
     7
100
AcDbBlockReference
  2
SW_CENTERMARKSYMBOL_2
 10
130.6070913462
 20
-182.9391405632
 30
0.0
  0
SPLINE
  5
F6
330
1F
100
AcDbEntity
  8
0
  6
Continuous
 62
     7
370
    25
100
AcDbSpline
210
0.0
220
0.0
230
1.0
 70
     8
 71
     3
 72
    12
 73
     8
 74
     0
 42
0.00000001
 43
0.00000001
 40
0.0
 40
0.0
 40
0.0
 40
0.0
 40
0.0397320371131441
 40
0.3250137831737275
 40
0.6102365215497696
 40
0.8953831088382529
 40
1.0
 40
1.0
 40
1.0
 40
1.0
 10
325.6726470524559
 20
-53.02856011096844
 30
0.0
 10
325.056080245897
 20
-53.38081241539324
 30
0.0
 10
320.0124750109469
 20
-56.26228697373873
 30
0.0
 10
310.6206607868092
 20
-61.80807775589119
 30
0.0
 10
297.5139031301387
 20
-69.6832832233976
 30
0.0
 10
287.2326739662111
 20
-75.99079180811336
 30
0.0
 10
281.3493212256568
 20
-79.71401843930354
 30
0.0
 10
279.7701633328443
 20
-80.71337424553381
 30
0.0
  0
SPLINE
  5
F7
330
1F
100
AcDbEntity
  8
0
  6
Continuous
 62
     7
370
    25
100
AcDbSpline
210
0.0
220
0.0
230
1.0
 70
     8
 71
     3
 72
    11
 73
     7
 74
     0
 42
0.00000001
 43
0.00000001
 40
0.0
 40
0.0
 40
0.0
 40
0.0
 40
0.1837042301641272
 40
0.4690626592037496
 40
0.7544114701918048
 40
1.0
 40
1.0
 40
1.0
 40
1.0
 10
353.2772353339818
 20
-208.0453753372581
 30
0.0
 10
356.1801187343975
 20
-206.5145932507017
 30
0.0
 10
363.5922191848929
 20
-202.6059586180637
 30
0.0
 10
375.4263008336123
 20
-196.1485965442936
 30
0.0
 10
388.1752049530252
 20
-189.0573589204311
 30
0.0
 10
396.401372953309
 20
-184.3272873553433
 30
0.0
 10
400.2064406136758
 20
-182.1393619029437
 30
0.0
  0
LINE
  5
F8
330
1F
100
AcDbEntity
  8
0
  6
Continuous
 62
     7
370
    25
100
AcDbLine
 10
332.8165066343
 20
-78.7205604179
 30
0.0
 11
332.8165066343
 21
-67.1100506803
 31
0.0
  0
LINE
  5
F9
330
1F
100
AcDbEntity
  8
0
  6
Continuous
 62
     7
370
    25
100
AcDbLine
 10
318.8165066343
 20
-67.1100506803
 30
0.0
 11
318.8165066343
 21
-78.9246492387
 31
0.0
  0
LINE
  5
FA
330
1F
100
AcDbEntity
  8
0
  6
Continuous
 62
     7
370
    25
100
AcDbLine
 10
343.3453114172
 20
-42.8148775513
 30
0.0
 11
325.6676418876
 21
-53.0199789491
 31
0.0
  0
LINE
  5
FB
330
1F
100
AcDbEntity
  8
0
  6
Continuous
 62
     7
370
    25
100
AcDbLine
 10
400.2115834056
 20
-182.1478643301
 30
0.0
 11
417.8892529352
 21
-171.9427629323
 31
0.0
  0
SPLINE
  5
FC
330
1F
100
AcDbEntity
  8
0
  6
Continuous
 62
     7
370
    25
100
AcDbSpline
210
0.0
220
0.0
230
1.0
 70
     8
 71
     3
 72
    11
 73
     7
 74
     0
 42
0.00000001
 43
0.00000001
 40
0.0
 40
0.0
 40
0.0
 40
0.0
 40
0.1836790689619831
 40
0.4690452599622679
 40
0.7544018326502263
 40
1.0
 40
1.0
 40
1.0
 40
1.0
 10
390.2782312217951
 20
-16.91812310979859
 30
0.0
 10
387.3758246267828
 20
-18.4486544139468
 30
0.0
 10
379.9642013886688
 20
-22.35703906273435
 30
0.0
 10
368.1305943341402
 20
-28.81414601984334
 30
0.0
 10
355.3816437120238
 20
-35.9054086884861
 30
0.0
 10
347.1554300081075
 20
-40.63550681507644
 30
0.0
 10
343.3503165821198
 20
-42.82345871318478
 30
0.0
  0
SPLINE
  5
FD
330
1F
100
AcDbEntity
  8
0
  6
Continuous
 62
     7
370
    25
100
AcDbSpline
210
0.0
220
0.0
230
1.0
 70
     8
 71
     3
 72
    12
 73
     8
 74
     0
 42
0.00000001
 43
0.00000001
 40
0.0
 40
0.0
 40
0.0
 40
0.0
 40
0.0397360397731824
 40
0.3250252914481915
 40
0.6102555338848343
 40
0.8954096232317215
 40
1.0
 40
1.0
 40
1.0
 40
1.0
 10
417.8841101433393
 20
-171.9342605051603
 30
0.0
 10
418.5007228536721
 20
-171.5819820049146
 30
0.0
 10
423.5443740839048
 20
-168.700481410822
 30
0.0
 10
432.9362343043846
 20
-163.1546645524562
 30
0.0
 10
446.0429910277052
 20
-155.2794576442775
 30
0.0
 10
456.3237768289565
 20
-148.9722262018078
 30
0.0
 10
462.2066887459425
 20
-145.2492805569517
 30
0.0
 10
463.7854051290773
 20
-144.2502046969028
 30
0.0
  0
LINE
  5
FE
330
1F
100
AcDbEntity
  8
0
  6
Continuous
 62
     7
370
    25
100
AcDbLine
 10
424.7403881885
 20
-25.8584620188
 30
0.0
 11
424.7403881885
 21
-14.0435234118
 31
0.0
  0
LINE
  5
FF
330
1F
100
AcDbEntity
  8
0
  6
Continuous
 62
     7
370
    25
100
AcDbLine
 10
410.7403881885
 20
-14.0435234118
 30
0.0
 11
410.7403881885
 21
-25.6543323742
 31
0.0
  0
LWPOLYLINE
  5
100
330
1F
100
AcDbEntity
  8
0
  6
Continuous
 62
     7
370
    25
100
AcDbPolyline
 90
      126
 70
   128
 43
0.0
 10
265.3235215038
 20
-113.8896749336
 10
265.3892094904
 20
-110.9100940519
 10
265.5861075169
 20
-108.0138815852
 10
265.9137182016
 20
-105.2083536175
 10
266.3712139715
 20
-102.5005971559
 10
266.9574391527
 20
-99.8974522283
 10
267.6709128895
 20
-97.4054946047
 10
268.5098328852
 20
-95.0310191863
 10
269.4720799551
 20
-92.7800241041
 10
270.5552233797
 20
-90.658195567
 10
271.7565270447
 20
-88.6708934981
 10
273.0729563526
 20
-86.8231379948
 10
274.5011858889
 20
-85.119596648
 10
276.0376078218
 20
-83.5645727509
 10
277.6783410162
 20
-82.1619944288
 10
279.4192408375
 20
-80.9154047163
 10
281.2559096218
 20
-79.8279526072
 10
283.1837077842
 20
-78.9023850999
 10
285.1977655395
 20
-78.1410402583
 10
287.2929952027
 20
-77.5458413055
 10
289.4641040421
 20
-77.1182917657
 10
291.7056076482
 20
-76.8594716662
 10
294.0118437883
 20
-76.770034809
 10
296.3769867099
 20
-76.8502071193
 10
298.7950618567
 20
-77.099786075
 10
301.2599609609
 20
-77.5181412179
 10
303.7654574736
 20
-78.1042157467
 10
306.305222293
 20
-78.8565291862
 10
308.8728397528
 20
-79.7731811273
 10
311.4618238285
 20
-80.8518560278
 10
314.0656345217
 20
-82.0898290612
 10
316.6776943804
 20
-83.4839730002
 10
319.2914051149
 20
-85.0307661162
 10
321.9001642649
 20
-86.7263010755
 10
324.4973818785
 20
-88.5662948098
 10
327.0764971585
 20
-90.546099335
 10
329.6309950359
 20
-92.6607134932
 10
332.1544226274
 20
-94.9047955855
 10
334.6404055359
 20
-97.2726768658
 10
337.0826639528
 20
-99.7583758604
 10
339.4750285213
 20
-102.3556134779
 10
341.811455921
 20
-105.0578288708
 10
344.0860441335
 20
-107.8581960084
 10
346.2930473514
 20
-110.7496409203
 10
348.4268904933
 20
-113.7248595657
 10
350.482183286
 20
-116.7763362841
 10
352.4537338817
 20
-119.8963627804
 10
354.3365619724
 20
-123.077057597
 10
356.1259113709
 20
-126.3103860227
 10
357.8172620254
 20
-129.5881803893
 10
359.4063414373
 20
-132.9021607038
 10
360.8891354541
 20
-136.2439555642
 10
362.2618984095
 20
-139.6051233067
 10
363.5211625851
 20
-142.9771733299
 10
364.6637469702
 20
-146.3515875428
 10
365.6867652977
 20
-149.7198418822
 10
366.5876333343
 20
-153.0734278453
 10
367.3640754092
 20
-156.4038739829
 10
368.0141301624
 20
-159.7027672991
 10
368.5361554992
 20
-162.961774503
 10
368.9288327382
 20
-166.1726630597
 10
369.1911699427
 20
-169.3273219858
 10
369.3225044261
 20
-172.4177823392
 10
369.3225044261
 20
-175.4362373489
 10
369.1911699427
 20
-178.3750621354
 10
368.9288327382
 20
-181.2268329724
 10
368.5361554992
 20
-183.9843460393
 10
368.0141301624
 20
-186.6406356185
 10
367.3640754092
 20
-189.1889916923
 10
366.5876333343
 20
-191.6229768919
 10
365.6867652977
 20
-193.9364427595
 10
364.6637469702
 20
-196.1235452796
 10
363.5211625851
 20
-198.1787596413
 10
362.2618984095
 20
-200.0968941949
 10
360.8891354541
 20
-201.8731035659
 10
359.4063414373
 20
-203.5029008953
 10
357.8172620254
 20
-204.9821691737
 10
356.1259113709
 20
-206.307171641
 10
354.3365619724
 20
-207.4745612259
 10
352.4537338817
 20
-208.4813890011
 10
350.482183286
 20
-209.3251116322
 10
348.4268904933
 20
-210.0035978026
 10
346.2930473514
 20
-210.5151335974
 10
344.0860441335
 20
-210.8584268327
 10
341.811455921
 20
-211.0326103201
 10
339.4750285213
 20
-211.0372440569
 10
337.0826639528
 20
-210.872316338
 10
334.6404055359
 20
-210.538243785
 10
332.1544226274
 20
-210.0358702942
 10
329.6309950359
 20
-209.3664649047
 10
327.0764971585
 20
-208.5317185925
 10
324.4973818784
 20
-207.5337399994
 10
321.9001642649
 20
-206.3750501057
 10
319.2914051149
 20
-205.0585758629
 10
316.6776943804
 20
-203.587642799
 10
314.0656345216
 20
-201.9659666186
 10
311.4618238285
 20
-200.1976438165
 10
308.8728397528
 20
-198.2871413296
 10
306.305222293
 20
-196.239285253
 10
303.7654574736
 20
-194.0592486488
 10
301.2599609609
 20
-191.7525384787
 10
298.7950618567
 20
-189.3249816929
 10
296.3769867099
 20
-186.7827105103
 10
294.0118437883
 20
-184.1321469287
 10
291.7056076482
 20
-181.3799865017
 10
289.4641040421
 20
-178.5331814254
 10
287.2929952027
 20
-175.5989229765
 10
285.1977655395
 20
-172.5846233465
 10
283.1837077842
 20
-169.4978969178
 10
281.2559096218
 20
-166.3465410294
 10
279.4192408375
 20
-163.1385162796
 10
277.6783410162
 20
-159.8819264175
 10
276.0376078218
 20
-156.5849978716
 10
274.5011858889
 20
-153.2560589696
 10
273.0729563526
 20
-149.9035189001
 10
271.7565270447
 20
-146.5358464702
 10
270.5552233797
 20
-143.1615487127
 10
269.4720799551
 20
-139.7891493968
 10
268.5098328852
 20
-136.4271674956
 10
267.6709128895
 20
-133.0840956673
 10
266.9574391527
 20
-129.7683788015
 10
266.3712139715
 20
-126.4883926866
 10
265.9137182016
 20
-123.2524228524
 10
265.5861075169
 20
-120.0686436395
 10
265.3892094904
 20
-116.9450975503
 10
265.3235215038
 20
-113.8896749336
  0
SPLINE
  5
101
330
1F
100
AcDbEntity
  8
0
  6
Continuous
 62
     7
370
    25
100
AcDbSpline
210
0.0
220
0.0
230
1.0
 70
     8
 71
     3
 72
    17
 73
    13
 74
     0
 42
0.00000001
 43
0.00000001
 40
0.0
 40
0.0
 40
0.0
 40
0.0
 40
0.1057154094623516
 40
0.2144936379607381
 40
0.3202098573268805
 40
0.4289996237668197
 40
0.5345720392385803
 40
0.6432128799632377
 40
0.7486813913327577
 40
0.8571988969228269
 40
0.9628419810744481
 40
1.0
 40
1.0
 40
1.0
 40
1.0
 10
325.8319423726337
 20
-82.9664017198066
 30
0.0
 10
325.4439914245834
 20
-82.94697617326364
 30
0.0
 10
324.6568496954748
 20
-82.90756227732766
 30
0.0
 10
323.5138921955485
 20
-82.7059231526617
 30
0.0
 10
322.4259731932647
 20
-82.40719206786672
 30
0.0
 10
321.4440419244515
 20
-82.01717090035277
 30
0.0
 10
320.577852344775
 20
-81.54435278091981
 30
0.0
 10
319.8688865465667
 20
-81.01041968589327
 30
0.0
 10
319.3191798718817
 20
-80.41997446900727
 30
0.0
 10
318.9710363456118
 20
-79.79771746470566
 30
0.0
 10
318.8089773990339
 20
-79.29128922160858
 30
0.0
 10
318.8332012170954
 20
-79.00063780012297
 30
0.0
 10
318.8395044533492
 20
-78.92500791500605
 30
0.0
  0
SPLINE
  5
102
330
1F
100
AcDbEntity
  8
0
  6
Continuous
 62
     7
370
    25
100
AcDbSpline
210
0.0
220
0.0
230
1.0
 70
     8
 71
     3
 72
    17
 73
    13
 74
     0
 42
0.00000001
 43
0.00000001
 40
0.0
 40
0.0
 40
0.0
 40
0.0
 40
0.0002385922393518
 40
0.1063661876174915
 40
0.2155580721312477
 40
0.3218863934294944
 40
0.4313204077335668
 40
0.5372466969263742
 40
0.6462678293795969
 40
0.7518141674434626
 40
0.8604161695343546
 40
0.9999999999999999
 40
0.9999999999999999
 40
0.9999999999999999
 40
0.9999999999999999
 10
332.8162851766988
 20
-78.72057126562395
 30
0.0
 10
332.8163589819623
 20
-78.7211158992338
 30
0.0
 10
332.8492619150721
 20
-78.96391759674783
 30
0.0
 10
332.7348397282049
 20
-79.46321718994078
 30
0.0
 10
332.4602506531224
 20
-80.18194649554566
 30
0.0
 10
331.9677392158262
 20
-80.86357626732868
 30
0.0
 10
331.3116681051082
 20
-81.47134702680908
 30
0.0
 10
330.491205246151
 20
-81.99735007598332
 30
0.0
 10
329.5484921037876
 20
-82.41737568383387
 30
0.0
 10
328.4921021307466
 20
-82.72594268637552
 30
0.0
 10
327.2528939444199
 20
-82.94443555573852
 30
0.0
 10
326.3434363914032
 20
-82.95849465122015
 30
0.0
 10
325.8319423726337
 20
-82.9664017198066
 30
0.0
  0
LWPOLYLINE
  5
103
330
1F
100
AcDbEntity
  8
0
  6
Continuous
 62
     7
370
    25
100
AcDbPolyline
 90
      117
 70
   128
 43
0.0
 10
272.8542087234
 20
-118.237048129
 10
272.9194380998
 20
-115.494107322
 10
273.1149349
 20
-112.8345242678
 10
273.4401256982
 20
-110.2660999819
 10
273.8940566537
 20
-107.7963680952
 10
274.4753963089
 20
-105.4325727569
 10
275.1824394943
 20
-103.1816473859
 10
276.0131123306
 20
-101.0501943342
 10
276.9649783111
 20
-99.044465521
 10
278.0352454489
 20
-97.1703440942
 10
279.2207744661
 20
-95.4333271751
 10
280.5180880018
 20
-93.8385097334
 10
281.9233808119
 20
-92.3905696436
 10
283.4325309305
 20
-91.0937539635
 10
285.0411117602
 20
-89.9518664767
 10
286.7444050564
 20
-88.9682565362
 10
288.5374147662
 20
-88.1458092392
 10
290.4148816833
 20
-87.4869369655
 10
292.3712988738
 20
-86.9935723009
 10
294.4009278288
 20
-86.667162369
 10
296.4978152971
 20
-86.5086645864
 10
298.6558107464
 20
-86.5185438544
 10
300.8685844041
 20
-86.6967711954
 10
303.129645824
 20
-87.0428238378
 10
305.4323629233
 20
-87.5556867498
 10
307.7699814359
 20
-88.2338556159
 10
310.135644724
 20
-89.07534125
 10
312.5224138897
 20
-90.0776754298
 10
314.9232881276
 20
-91.2379181365
 10
317.33122526
 20
-92.5526661783
 10
319.7391623925
 20
-94.0180631726
 10
322.1400366304
 20
-95.6298108575
 10
324.526805796
 20
-97.3831816995
 10
326.8924690842
 20
-99.2730327597
 10
329.2300875968
 20
-101.2938207794
 10
331.5328046961
 20
-103.4396184391
 10
333.7938661159
 20
-105.7041317446
 10
336.0066397737
 20
-108.0807184881
 10
338.1646352229
 20
-110.5624077313
 10
340.2615226912
 20
-113.141920252
 10
342.2911516463
 20
-115.8116898956
 10
344.2475688368
 20
-118.5638857677
 10
346.1250357539
 20
-121.3904352036
 10
347.9180454637
 20
-124.2830474468
 10
349.6213387598
 20
-127.2332379673
 10
351.2299195895
 20
-130.2323533478
 10
352.7390697081
 20
-133.2715966663
 10
354.1443625182
 20
-136.3420532984
 10
355.441676054
 20
-139.4347170658
 10
356.6272050712
 20
-142.5405166529
 10
357.697472209
 20
-145.6503422142
 10
358.6493381895
 20
-148.7550720957
 10
359.4800110257
 20
-151.8455995896
 10
360.1870542112
 20
-154.9128596463
 10
360.7683938664
 20
-157.9478554637
 10
361.2223248219
 20
-160.9416848759
 10
361.5475156201
 20
-163.8855664655
 10
361.7430124203
 20
-166.7708653207
 10
361.8082417967
 20
-169.5891183627
 10
361.7430124203
 20
-172.3320591698
 10
361.5475156201
 20
-174.9916422239
 10
361.2223248219
 20
-177.5600665098
 10
360.7683938664
 20
-180.0297983965
 10
360.1870542112
 20
-182.3935937349
 10
359.4800110257
 20
-184.6445191058
 10
358.6493381895
 20
-186.7759721575
 10
357.697472209
 20
-188.7817009708
 10
356.6272050712
 20
-190.6558223975
 10
355.441676054
 20
-192.3928393167
 10
354.1443625182
 20
-193.9876567583
 10
352.7390697081
 20
-195.4355968481
 10
351.2299195895
 20
-196.7324125283
 10
349.6213387598
 20
-197.874300015
 10
347.9180454637
 20
-198.8579099556
 10
346.1250357539
 20
-199.6803572525
 10
344.2475688367
 20
-200.3392295263
 10
342.2911516463
 20
-200.8325941908
 10
340.2615226912
 20
-201.1590041227
 10
338.1646352229
 20
-201.3175019053
 10
336.0066397737
 20
-201.3076226373
 10
333.7938661159
 20
-201.1293952963
 10
331.5328046961
 20
-200.7833426539
 10
329.2300875968
 20
-200.270479742
 10
326.8924690842
 20
-199.5923108759
 10
324.526805796
 20
-198.7508252417
 10
322.1400366304
 20
-197.7484910619
 10
319.7391623925
 20
-196.5882483552
 10
317.33122526
 20
-195.2735003135
 10
314.9232881276
 20
-193.8081033192
 10
312.5224138897
 20
-192.1963556342
 10
310.135644724
 20
-190.4429847922
 10
307.7699814359
 20
-188.553133732
 10
305.4323629233
 20
-186.5323457123
 10
303.129645824
 20
-184.3865480526
 10
300.8685844041
 20
-182.1220347472
 10
298.6558107464
 20
-179.7454480037
 10
296.4978152971
 20
-177.2637587605
 10
294.4009278288
 20
-174.6842462397
 10
292.3712988738
 20
-172.0144765961
 10
290.4148816833
 20
-169.262280724
 10
288.5374147662
 20
-166.4357312881
 10
286.7444050564
 20
-163.5431190449
 10
285.0411117602
 20
-160.5929285245
 10
283.4325309305
 20
-157.593813144
 10
281.9233808119
 20
-154.5545698255
 10
280.5180880018
 20
-151.4841131933
 10
279.2207744661
 20
-148.3914494259
 10
278.0352454489
 20
-145.2856498389
 10
276.9649783111
 20
-142.1758242775
 10
276.0131123306
 20
-139.071094396
 10
275.1824394943
 20
-135.9805669021
 10
274.4753963089
 20
-132.9133068454
 10
273.8940566537
 20
-129.8783110281
 10
273.4401256982
 20
-126.8844816159
 10
273.1149349
 20
-123.9406000262
 10
272.9194380998
 20
-121.055301171
 10
272.8542087234
 20
-118.237048129
  0
LWPOLYLINE
  5
104
330
1F
100
AcDbEntity
  8
0
  6
Continuous
 62
     7
370
    25
100
AcDbPolyline
 90
       39
 70
   128
 43
0.0
 10
330.7662541026
 20
-64.2526222889
 10
331.5134476552
 20
-64.7619111431
 10
332.1052435075
 20
-65.3352511228
 10
332.5254990115
 20
-65.9570030078
 10
332.7627506924
 20
-66.6102070275
 10
332.810526943
 20
-67.2770454791
 10
332.6675245516
 20
-67.9393287479
 10
332.3376442506
 20
-68.5789914728
 10
331.8298843149
 20
-69.1785853222
 10
331.1580951117
 20
-69.7217549387
 10
330.3406012993
 20
-70.1936840713
 10
329.3997019779
 20
-70.5814997234
 10
328.3610624282
 20
-70.874623295
 10
327.2530140296
 20
-71.0650591392
 10
326.105781454
 20
-71.1476126626
 10
324.9506582154
 20
-71.1200320202
 10
323.8191530645
 20
-70.9830695401
 10
322.7421305123
 20
-70.7404612017
 10
321.7489689265
 20
-70.3988247281
 10
320.866759166
 20
-69.9674790717
 10
320.1195656134
 20
-69.4581902174
 10
319.527769761
 20
-68.8848502378
 10
319.1075142571
 20
-68.2630983528
 10
318.8702625761
 20
-67.609894333
 10
318.8224863256
 20
-66.9430558814
 10
318.965488717
 20
-66.2807726126
 10
319.2953690179
 20
-65.6411098877
 10
319.8031289537
 20
-65.0415160384
 10
320.4749181569
 20
-64.4983464218
 10
321.2924119692
 20
-64.0264172893
 10
322.2333112906
 20
-63.6386016371
 10
323.2719508403
 20
-63.3454780655
 10
324.3799992389
 20
-63.1550422213
 10
325.5272318145
 20
-63.072488698
 10
326.6823550532
 20
-63.1000693404
 10
327.813860204
 20
-63.2370318204
 10
328.8908827562
 20
-63.4796401588
 10
329.8840443421
 20
-63.8212766324
 10
330.7662541026
 20
-64.2526222889
  0
LWPOLYLINE
  5
105
330
1F
100
AcDbEntity
  8
0
  6
Continuous
 62
     7
370
    25
100
AcDbPolyline
 90
       33
 70
   128
 43
0.0
 10
329.3520405402
 20
-65.0690304007
 10
329.9738546958
 20
-65.5064313367
 10
330.4359042968
 20
-66.0054584647
 10
330.7204330363
 20
-66.546934452
 10
330.8165066343
 20
-67.1100506803
 10
330.7204330363
 20
-67.6731669085
 10
330.4359042968
 20
-68.2146428959
 10
329.9738546958
 20
-68.7136700239
 10
329.3520405402
 20
-69.1510709598
 10
328.5943577994
 20
-69.5100366311
 10
327.7299237961
 20
-69.7767721881
 10
326.7919582444
 20
-69.9410271331
 10
325.8165066343
 20
-69.9964892407
 10
324.8410550242
 20
-69.9410271331
 10
323.9030894724
 20
-69.7767721881
 10
323.0386554692
 20
-69.5100366311
 10
322.2809727283
 20
-69.1510709598
 10
321.6591585728
 20
-68.7136700239
 10
321.1971089717
 20
-68.2146428959
 10
320.9125802323
 20
-67.6731669085
 10
320.8165066343
 20
-67.1100506803
 10
320.9125802323
 20
-66.546934452
 10
321.1971089717
 20
-66.0054584647
 10
321.6591585728
 20
-65.5064313367
 10
322.2809727283
 20
-65.0690304007
 10
323.0386554692
 20
-64.7100647295
 10
323.9030894724
 20
-64.4433291724
 10
324.8410550242
 20
-64.2790742274
 10
325.8165066343
 20
-64.2236121198
 10
326.7919582444
 20
-64.2790742274
 10
327.7299237961
 20
-64.4433291724
 10
328.5943577994
 20
-64.7100647295
 10
329.3520405402
 20
-65.0690304007
  0
ARC
  5
106
330
1F
100
AcDbEntity
  8
0
  6
Continuous
 62
     7
370
    25
100
AcDbCircle
 10
403.4219441781
 20
-43.9569958295
 30
0.0
 40
30.08321446773245
100
AcDbArc
 50
75.9201836765
 51
115.9265695505
  0
LWPOLYLINE
  5
107
330
1F
100
AcDbEntity
  8
0
  6
Continuous
 62
     7
370
    25
100
AcDbPolyline
 90
       49
 70
   128
 43
0.0
 10
424.7403881885
 20
-20.1601435789
 10
425.5721386831
 20
-20.6205483899
 10
428.1858494176
 20
-22.1673415059
 10
430.7946085676
 20
-23.8628764652
 10
433.3918261812
 20
-25.7028701994
 10
435.9709414612
 20
-27.6826747247
 10
438.5254393386
 20
-29.7972888829
 10
441.0488669301
 20
-32.0413709752
 10
443.5348498386
 20
-34.4092522554
 10
445.9771082555
 20
-36.89495125
 10
448.369472824
 20
-39.4921888676
 10
450.7059002237
 20
-42.1944042605
 10
452.9804884362
 20
-44.9947713981
 10
455.1874916542
 20
-47.88621631
 10
457.321334796
 20
-50.8614349553
 10
459.3766275888
 20
-53.9129116737
 10
461.3481781844
 20
-57.0329381701
 10
463.2310062751
 20
-60.2136329867
 10
465.0203556736
 20
-63.4469614124
 10
466.7117063281
 20
-66.724755779
 10
468.30078574
 20
-70.0387360934
 10
469.7835797568
 20
-73.3805309538
 10
471.1563427122
 20
-76.7416986964
 10
472.4156068878
 20
-80.1137487196
 10
473.558191273
 20
-83.4881629324
 10
474.5812096004
 20
-86.8564172718
 10
475.482077637
 20
-90.2100032349
 10
476.2585197119
 20
-93.5404493726
 10
476.9085744652
 20
-96.8393426888
 10
477.4305998019
 20
-100.0983498927
 10
477.823277041
 20
-103.3092384493
 10
478.0856142454
 20
-106.4638973754
 10
478.2169487288
 20
-109.5543577289
 10
478.2169487288
 20
-112.5728127385
 10
478.0856142454
 20
-115.5116375251
 10
477.823277041
 20
-118.3634083621
 10
477.4305998019
 20
-121.1209214289
 10
476.9085744652
 20
-123.7772110082
 10
476.2585197119
 20
-126.3255670819
 10
475.482077637
 20
-128.7595522816
 10
474.5812096004
 20
-131.0730181492
 10
473.558191273
 20
-133.2601206693
 10
472.4156068878
 20
-135.315335031
 10
471.1563427122
 20
-137.2334695845
 10
469.7835797568
 20
-139.0096789555
 10
468.30078574
 20
-140.639476285
 10
466.7117063281
 20
-142.1187445634
 10
465.0203556736
 20
-143.4437470307
 10
463.7948621073
 20
-144.2669523826
  0
SPLINE
  5
108
330
1F
100
AcDbEntity
  8
0
  6
Continuous
 62
     7
370
    25
100
AcDbSpline
210
0.0
220
0.0
230
1.0
 70
     8
 71
     3
 72
    17
 73
    13
 74
     0
 42
0.00000001
 43
0.00000001
 40
0.0
 40
0.0
 40
0.0
 40
0.0
 40
0.1053294732056312
 40
0.2137008686410578
 40
0.3190343275500452
 40
0.4274479566267296
 40
0.5323252114540714
 40
0.6402610899359586
 40
0.7448745479991061
 40
0.8524987084170904
 40
0.9575440677356828
 40
1.0
 40
1.0
 40
1.0
 40
1.0
 10
417.7902314587277
 20
-29.69753007742412
 30
0.0
 10
417.4027394358091
 20
-29.6684649032866
 30
0.0
 10
416.6165645944377
 20
-29.6094951508388
 30
0.0
 10
415.4730616736516
 20
-29.38685507315901
 30
0.0
 10
414.3829599482569
 20
-29.07355562070182
 30
0.0
 10
413.3983861817318
 20
-28.67689217170287
 30
0.0
 10
412.5291524864348
 20
-28.20556679834073
 30
0.0
 10
411.8168402002985
 20
-27.68186497069201
 30
0.0
 10
411.2627524687137
 20
-27.10990371839933
 30
0.0
 10
410.9068634565662
 20
-26.51365259863728
 30
0.0
 10
410.7371142319209
 20
-26.02098892275778
 30
0.0
 10
410.7584495618422
 20
-25.73647876828726
 30
0.0
 10
410.7645906017765
 20
-25.65458698471654
 30
0.0
  0
SPLINE
  5
109
330
1F
100
AcDbEntity
  8
0
  6
Continuous
 62
     7
370
    25
100
AcDbSpline
210
0.0
220
0.0
230
1.0
 70
     8
 71
     3
 72
    16
 73
    12
 74
     0
 42
0.00000001
 43
0.00000001
 40
0.0
 40
0.0
 40
0.0
 40
0.0
 40
0.1034999949467306
 40
0.2129242403443433
 40
0.3191381293156048
 40
0.4284502538385686
 40
0.5343570481527711
 40
0.6433341962340812
 40
0.7492861970272608
 40
0.8582847096121429
 40
1.0
 40
1.0
 40
1.0
 40
1.0
 10
424.7378812042236
 20
-25.85834785835902
 30
0.0
 10
424.7211860487852
 20
-26.08482621455035
 30
0.0
 10
424.6868401216092
 20
-26.55074635272325
 30
0.0
 10
424.3884475939033
 20
-27.22326559730459
 30
0.0
 10
423.9104301113537
 20
-27.85923176998594
 30
0.0
 10
423.2592867045248
 20
-28.4198302009058
 30
0.0
 10
422.4474299835005
 20
-28.89806346777882
 30
0.0
 10
421.5117469820565
 20
-29.27279905206999
 30
0.0
 10
420.461351078401
 20
-29.53878452933369
 30
0.0
 10
419.2208371045303
 20
-29.71523011571425
 30
0.0
 10
418.3068564948311
 20
-29.7039219737147
 30
0.0
 10
417.7902314587277
 20
-29.69753007742412
 30
0.0
  0
LWPOLYLINE
  5
10A
330
1F
100
AcDbEntity
  8
0
  6
Continuous
 62
     7
370
    25
100
AcDbPolyline
 90
       39
 70
   128
 43
0.0
 10
412.7906407202
 20
-16.9009518032
 10
412.0434471676
 20
-16.391662949
 10
411.4516513153
 20
-15.8183229693
 10
411.0313958113
 20
-15.1965710843
 10
410.7941441304
 20
-14.5433670646
 10
410.7463678798
 20
-13.8765286129
 10
410.8893702712
 20
-13.2142453441
 10
411.2192505722
 20
-12.5745826192
 10
411.7270105079
 20
-11.9749887699
 10
412.3987997111
 20
-11.4318191534
 10
413.2162935235
 20
-10.9598900208
 10
414.1571928449
 20
-10.5720743687
 10
415.1958323946
 20
-10.2789507971
 10
416.3038807932
 20
-10.0885149529
 10
417.4511133688
 20
-10.0059614295
 10
418.6062366074
 20
-10.0335420719
 10
419.7377417583
 20
-10.170504552
 10
420.8147643105
 20
-10.4131128903
 10
421.8079258963
 20
-10.754749364
 10
422.6901356568
 20
-11.1860950204
 10
423.4373292094
 20
-11.6953838746
 10
424.0291250618
 20
-12.2687238543
 10
424.4493805657
 20
-12.8904757393
 10
424.6866322467
 20
-13.543679759
 10
424.7344084972
 20
-14.2105182107
 10
424.5914061058
 20
-14.8728014795
 10
424.2615258049
 20
-15.5124642044
 10
423.7537658691
 20
-16.1120580537
 10
423.0819766659
 20
-16.6552276702
 10
422.2644828535
 20
-17.1271568028
 10
421.3235835322
 20
-17.5149724549
 10
420.2849439825
 20
-17.8080960265
 10
419.1768955839
 20
-17.9985318707
 10
418.0296630083
 20
-18.0810853941
 10
416.8745397696
 20
-18.0535047517
 10
415.7430346188
 20
-17.9165422716
 10
414.6660120666
 20
-17.6739339333
 10
413.6728504807
 20
-17.3322974596
 10
412.7906407202
 20
-16.9009518032
  0
LWPOLYLINE
  5
10B
330
1F
100
AcDbEntity
  8
0
  6
Continuous
 62
     7
370
    25
100
AcDbPolyline
 90
       33
 70
   128
 43
0.0
 10
414.2048542826
 20
-16.0845436914
 10
413.583040127
 20
-15.6471427554
 10
413.120990526
 20
-15.1481156274
 10
412.8364617865
 20
-14.60663964
 10
412.7403881885
 20
-14.0435234118
 10
412.8364617865
 20
-13.4804071836
 10
413.120990526
 20
-12.9389311962
 10
413.583040127
 20
-12.4399040682
 10
414.2048542826
 20
-12.0025031322
 10
414.9625370234
 20
-11.643537461
 10
415.8269710267
 20
-11.376801904
 10
416.7649365784
 20
-11.2125469589
 10
417.7403881885
 20
-11.1570848514
 10
418.7158397986
 20
-11.2125469589
 10
419.6538053503
 20
-11.376801904
 10
420.5182393536
 20
-11.643537461
 10
421.2759220945
 20
-12.0025031322
 10
421.89773625
 20
-12.4399040682
 10
422.3597858511
 20
-12.9389311962
 10
422.6443145905
 20
-13.4804071836
 10
422.7403881885
 20
-14.0435234118
 10
422.6443145905
 20
-14.60663964
 10
422.3597858511
 20
-15.1481156274
 10
421.89773625
 20
-15.6471427554
 10
421.2759220945
 20
-16.0845436914
 10
420.5182393536
 20
-16.4435093626
 10
419.6538053503
 20
-16.7102449196
 10
418.7158397986
 20
-16.8744998647
 10
417.7403881885
 20
-16.9299619722
 10
416.7649365784
 20
-16.8744998647
 10
415.8269710267
 20
-16.7102449196
 10
414.9625370234
 20
-16.4435093626
 10
414.2048542826
 20
-16.0845436914
  0
LWPOLYLINE
  5
10C
330
1F
100
AcDbEntity
  8
0
  6
Continuous
 62
     1
370
    25
100
AcDbPolyline
 90
       65
 70
   128
 43
0.0
 10
325.6676184507
 20
-53.0199924789
 10
326.1321910709
 20
-52.7584026024
 10
328.0589690823
 20
-51.8062354332
 10
330.0724658695
 20
-51.017601956
 10
332.1676755623
 20
-50.3944628379
 10
334.3393891391
 20
-49.9383673009
 10
336.5822073778
 20
-49.6504492704
 10
338.890554279
 20
-49.5314245559
 10
341.2586909285
 20
-49.5815890716
 10
343.6807297655
 20
-49.8008181007
 10
346.1506492198
 20
-50.1885666053
 10
348.6623086825
 20
-50.7438705814
 10
351.2094637724
 20
-51.4653494559
 10
353.7857818607
 20
-52.3512095187
 10
356.3848578145
 20
-53.399248382
 10
359.0002299217
 20
-54.6068604561
 10
361.625395955
 20
-55.9710434271
 10
364.2538293381
 20
-57.4884057211
 10
366.8789953714
 20
-59.1551749366
 10
369.4943674786
 20
-60.9672072225
 10
372.0934434325
 20
-62.9199975811
 10
374.6697615207
 20
-65.0086910679
 10
377.2169166106
 20
-67.2280948617
 10
379.7285760733
 20
-69.5726911751
 10
382.1984955276
 20
-72.0366509721
 10
384.6205343646
 20
-74.6138484606
 10
386.9886710141
 20
-77.2978763215
 10
389.2970179153
 20
-80.0820616385
 10
391.5398361541
 20
-82.9594824885
 10
393.7115497309
 20
-85.9229851496
 10
395.8067594236
 20
-88.9652018874
 10
397.8202562108
 20
-92.0785692718
 10
399.7470342222
 20
-95.2553469808
 10
401.5823031842
 20
-98.4876370445
 10
403.3215003289
 20
-101.7674034806
 10
404.9603017381
 20
-105.086492273
 10
406.4946330933
 20
-108.4366516438
 10
407.9206798051
 20
-111.8095525692
 10
409.2348964967
 20
-115.1968094858
 10
410.4340158182
 20
-118.5900011394
 10
411.5150565701
 20
-121.9806915209
 10
412.4753311147
 20
-125.3604508396
 10
413.3124520583
 20
-128.7208764815
 10
414.0243381863
 20
-132.0536138989
 10
414.6092196375
 20
-135.3503773814
 10
415.0656423046
 20
-138.6029706557
 10
415.3924714489
 20
-141.8033072623
 10
415.5888945216
 20
-144.9434306602
 10
415.654423184
 20
-148.0155340078
 10
415.5888945216
 20
-151.0119795722
 10
415.3924714489
 20
-153.9253177176
 10
415.0656423046
 20
-156.7483054263
 10
414.6092196375
 20
-159.4739243061
 10
414.0243381863
 20
-162.095398039
 10
413.3124520583
 20
-164.6062092282
 10
412.4753311147
 20
-167.0001156015
 10
411.5150565701
 20
-169.2711655306
 10
410.4340158182
 20
-171.4137128274
 10
409.2348964967
 20
-173.4224307817
 10
407.9206798051
 20
-175.2923254043
 10
406.4946330933
 20
-177.0187478425
 10
404.9603017381
 20
-178.597405938
 10
403.3215003289
 20
-180.0243748982
 10
401.5823031842
 20
-181.2961070533
 10
400.2115415477
 20
-182.147888494
  0
LWPOLYLINE
  5
10D
330
1F
100
AcDbEntity
  8
0
  6
Continuous
 62
     1
370
    25
100
AcDbPolyline
 90
       65
 70
   128
 43
0.0
 10
343.3453114172
 20
-42.8148775513
 10
343.8098606005
 20
-42.5533012046
 10
345.736638612
 20
-41.6011340354
 10
347.7501353992
 20
-40.8125005583
 10
349.8453450919
 20
-40.1893614401
 10
352.0170586687
 20
-39.7332659031
 10
354.2598769075
 20
-39.4453478726
 10
356.5682238087
 20
-39.3263231581
 10
358.9363604582
 20
-39.3764876738
 10
361.3583992952
 20
-39.5957167029
 10
363.8283187495
 20
-39.9834652075
 10
366.3399782122
 20
-40.5387691836
 10
368.8871333021
 20
-41.2602480581
 10
371.4634513903
 20
-42.1461081209
 10
374.0625273442
 20
-43.1941469842
 10
376.6778994514
 20
-44.4017590583
 10
379.3030654847
 20
-45.7659420293
 10
381.9314988678
 20
-47.2833043234
 10
384.5566649011
 20
-48.9500735388
 10
387.1720370082
 20
-50.7621058247
 10
389.7711129621
 20
-52.7148961833
 10
392.3474310504
 20
-54.8035896701
 10
394.8945861403
 20
-57.0229934639
 10
397.406245603
 20
-59.3675897773
 10
399.8761650573
 20
-61.8315495744
 10
402.2982038943
 20
-64.4087470628
 10
404.6663405438
 20
-67.0927749237
 10
406.974687445
 20
-69.8769602408
 10
409.2175056837
 20
-72.7543810907
 10
411.3892192605
 20
-75.7178837518
 10
413.4844289532
 20
-78.7601004896
 10
415.4979257405
 20
-81.873467874
 10
417.4247037519
 20
-85.050245583
 10
419.2599727139
 20
-88.2825356467
 10
420.9991698585
 20
-91.5623020829
 10
422.6379712677
 20
-94.8813908752
 10
424.172302623
 20
-98.2315502461
 10
425.5983493348
 20
-101.6044511714
 10
426.9125660263
 20
-104.9917080881
 10
428.1116853479
 20
-108.3848997417
 10
429.1927260998
 20
-111.7755901231
 10
430.1530006444
 20
-115.1553494419
 10
430.990121588
 20
-118.5157750837
 10
431.7020077159
 20
-121.8485125011
 10
432.2868891672
 20
-125.1452759837
 10
432.7433118343
 20
-128.3978692579
 10
433.0701409786
 20
-131.5982058645
 10
433.2665640513
 20
-134.7383292624
 10
433.3320927137
 20
-137.81043261
 10
433.2665640513
 20
-140.8068781744
 10
433.0701409786
 20
-143.7202163198
 10
432.7433118343
 20
-146.5432040285
 10
432.2868891672
 20
-149.2688229083
 10
431.7020077159
 20
-151.8902966412
 10
430.990121588
 20
-154.4011078304
 10
430.1530006444
 20
-156.7950142038
 10
429.1927260998
 20
-159.0660641328
 10
428.1116853479
 20
-161.2086114296
 10
426.9125660263
 20
-163.2173293839
 10
425.5983493348
 20
-165.0872240065
 10
424.172302623
 20
-166.8136464447
 10
422.6379712677
 20
-168.3923045402
 10
420.9991698585
 20
-169.8192735004
 10
419.2599727139
 20
-171.0910056555
 10
417.8892529352
 20
-171.9427629323
  0
ENDSEC
  0
SECTION
  2
OBJECTS
  0
DICTIONARY
  5
C
330
0
100
AcDbDictionary
281
     1
  3
ACAD_GROUP
350
D
  3
ACAD_LAYOUT
350
1A
  3
ACAD_MLINESTYLE
350
17
  3
ACAD_PLOTSETTINGS
350
19
  3
ACAD_PLOTSTYLENAME
350
E
  3
ACAD_SCALELIST
350
47
  3
DWGPROPS
350
10E
  0
DICTIONARY
  5
D
102
{ACAD_REACTORS
330
C
102
}
330
C
100
AcDbDictionary
281
     1
  0
DICTIONARY
  5
1A
102
{ACAD_REACTORS
330
C
102
}
330
C
100
AcDbDictionary
281
     1
  3
Layout1
350
1E
  3
Layout2
350
26
  3
Model
350
22
  0
DICTIONARY
  5
17
102
{ACAD_REACTORS
330
C
102
}
330
C
100
AcDbDictionary
281
     1
  3
Standard
350
18
  0
DICTIONARY
  5
19
102
{ACAD_REACTORS
330
C
102
}
330
C
100
AcDbDictionary
281
     1
  0
ACDBDICTIONARYWDFLT
  5
E
102
{ACAD_REACTORS
330
C
102
}
330
C
100
AcDbDictionary
281
     1
  3
Normal
350
F
100
AcDbDictionaryWithDefault
340
F
  0
DICTIONARY
  5
47
102
{ACAD_REACTORS
330
C
102
}
330
C
100
AcDbDictionary
281
     1
  3
A0
350
48
  3
A1
350
49
  3
A2
350
4A
  3
A3
350
4B
  3
A4
350
4C
  3
A5
350
4D
  3
A6
350
4E
  3
A7
350
4F
  3
A8
350
50
  3
A9
350
51
  3
B0
350
52
  3
B1
350
53
  3
B2
350
54
  3
B3
350
55
  3
B4
350
56
  3
B5
350
57
  3
B6
350
58
  3
B7
350
59
  3
B8
350
5A
  3
B9
350
5B
  3
C0
350
5C
  3
C1
350
5D
  3
C2
350
5E
  3
C3
350
5F
  3
C4
350
60
  3
C5
350
61
  3
C6
350
62
  3
C7
350
63
  3
C8
350
64
  3
C9
350
65
  3
D0
350
66
  3
D1
350
67
  3
D2
350
68
  0
XRECORD
  5
10E
102
{ACAD_REACTORS
330
C
102
}
330
C
100
AcDbXrecord
280
     1
  1
DWGPROPS COOKIE
  2

  3

  4

  6

  7

  8
b.kav
  9

300
=
301
=
302
=
303
=
304
=
305
=
306
=
307
=
308
=
309
=
 40
0.0
 41
2460390.230044954
 42
2460390.23004515
  1

 90
        0
  0
LAYOUT
  5
1E
102
{ACAD_REACTORS
330
1A
102
}
330
1A
100
AcDbPlotSettings
  1

  2
none_device
  4

  6

 40
0.0
 41
0.0
 42
0.0
 43
0.0
 44
0.0
 45
0.0
 46
0.0
 47
0.0
 48
0.0
 49
0.0
140
0.0
141
0.0
142
1.0
143
1.0
 70
   688
 72
     1
 73
     0
 74
     5
  7

 75
    16
147
1.0
148
0.0
149
0.0
100
AcDbLayout
  1
Layout1
 70
     1
 71
     1
 10
0.0
 20
0.0
 11
420.0
 21
297.0
 12
0.0
 22
0.0
 32
0.0
 14
1.0000000000E+20
 24
1.0000000000E+20
 34
1.0000000000E+20
 15
-1.0000000000E+20
 25
-1.0000000000E+20
 35
-1.0000000000E+20
146
0.0
 13
0.0
 23
0.0
 33
0.0
 16
1.0
 26
0.0
 36
0.0
 17
0.0
 27
1.0
 37
0.0
 76
     0
330
1B
  0
LAYOUT
  5
26
102
{ACAD_REACTORS
330
1A
102
}
330
1A
100
AcDbPlotSettings
  1

  2
none_device
  4

  6

 40
0.0
 41
0.0
 42
0.0
 43
0.0
 44
0.0
 45
0.0
 46
0.0
 47
0.0
 48
0.0
 49
0.0
140
0.0
141
0.0
142
1.0
143
1.0
 70
   688
 72
     1
 73
     0
 74
     5
  7

 75
    16
147
1.0
148
0.0
149
0.0
100
AcDbLayout
  1
Layout2
 70
     1
 71
     2
 10
0.0
 20
0.0
 11
0.0
 21
0.0
 12
0.0
 22
0.0
 32
0.0
 14
0.0
 24
0.0
 34
0.0
 15
0.0
 25
0.0
 35
0.0
146
0.0
 13
0.0
 23
0.0
 33
0.0
 16
1.0
 26
0.0
 36
0.0
 17
0.0
 27
1.0
 37
0.0
 76
     0
330
23
  0
LAYOUT
  5
22
102
{ACAD_REACTORS
330
1A
102
}
330
1A
100
AcDbPlotSettings
  1

  2
none_device
  4
Letter_(8.50_x_11.00_Inches)
  6

 40
6.35
 41
6.35
 42
6.35000508
 43
6.35000508
 44
215.9
 45
279.4
 46
0.0
 47
0.0
 48
0.0
 49
0.0
140
0.0
141
0.0
142
1.0
143
1.0
 70
  1712
 72
     1
 73
     0
 74
     0
  7

 75
     0
147
1.0
148
0.0
149
0.0
100
AcDbLayout
  1
Model
 70
     1
 71
     0
 10
0.0
 20
0.0
 11
279.4
 21
215.9
 12
0.0
 22
0.0
 32
0.0
 14
0.0
 24
0.0
 34
0.0
 15
279.4
 25
215.9
 35
0.0
146
0.0
 13
0.0
 23
0.0
 33
0.0
 16
1.0
 26
0.0
 36
0.0
 17
0.0
 27
1.0
 37
0.0
 76
     0
330
1F
331
29
  0
MLINESTYLE
  5
18
102
{ACAD_REACTORS
330
17
102
}
330
17
100
AcDbMlineStyle
  2
Standard
 70
     0
  3

 62
   256
 51
90.0
 52
90.0
 71
     2
 49
0.5
 62
   256
  6
BYLAYER
 49
-0.5
 62
   256
  6
BYLAYER
  0
ACDBPLACEHOLDER
  5
F
102
{ACAD_REACTORS
330
E
102
}
330
E
  0
SCALE
  5
48
102
{ACAD_REACTORS
330
47
102
}
330
47
100
AcDbScale
 70
     0
300
1:1
140
1.0
141
1.0
290
     1
  0
SCALE
  5
49
102
{ACAD_REACTORS
330
47
102
}
330
47
100
AcDbScale
 70
     0
300
1:2
140
1.0
141
2.0
290
     0
  0
SCALE
  5
4A
102
{ACAD_REACTORS
330
47
102
}
330
47
100
AcDbScale
 70
     0
300
1:4
140
1.0
141
4.0
290
     0
  0
SCALE
  5
4B
102
{ACAD_REACTORS
330
47
102
}
330
47
100
AcDbScale
 70
     0
300
1:5
140
1.0
141
5.0
290
     0
  0
SCALE
  5
4C
102
{ACAD_REACTORS
330
47
102
}
330
47
100
AcDbScale
 70
     0
300
1:8
140
1.0
141
8.0
290
     0
  0
SCALE
  5
4D
102
{ACAD_REACTORS
330
47
102
}
330
47
100
AcDbScale
 70
     0
300
1:10
140
1.0
141
10.0
290
     0
  0
SCALE
  5
4E
102
{ACAD_REACTORS
330
47
102
}
330
47
100
AcDbScale
 70
     0
300
1:16
140
1.0
141
16.0
290
     0
  0
SCALE
  5
4F
102
{ACAD_REACTORS
330
47
102
}
330
47
100
AcDbScale
 70
     0
300
1:20
140
1.0
141
20.0
290
     0
  0
SCALE
  5
50
102
{ACAD_REACTORS
330
47
102
}
330
47
100
AcDbScale
 70
     0
300
1:30
140
1.0
141
30.0
290
     0
  0
SCALE
  5
51
102
{ACAD_REACTORS
330
47
102
}
330
47
100
AcDbScale
 70
     0
300
1:40
140
1.0
141
40.0
290
     0
  0
SCALE
  5
52
102
{ACAD_REACTORS
330
47
102
}
330
47
100
AcDbScale
 70
     0
300
1:50
140
1.0
141
50.0
290
     0
  0
SCALE
  5
53
102
{ACAD_REACTORS
330
47
102
}
330
47
100
AcDbScale
 70
     0
300
1:100
140
1.0
141
100.0
290
     0
  0
SCALE
  5
54
102
{ACAD_REACTORS
330
47
102
}
330
47
100
AcDbScale
 70
     0
300
2:1
140
2.0
141
1.0
290
     0
  0
SCALE
  5
55
102
{ACAD_REACTORS
330
47
102
}
330
47
100
AcDbScale
 70
     0
300
4:1
140
4.0
141
1.0
290
     0
  0
SCALE
  5
56
102
{ACAD_REACTORS
330
47
102
}
330
47
100
AcDbScale
 70
     0
300
8:1
140
8.0
141
1.0
290
     0
  0
SCALE
  5
57
102
{ACAD_REACTORS
330
47
102
}
330
47
100
AcDbScale
 70
     0
300
10:1
140
10.0
141
1.0
290
     0
  0
SCALE
  5
58
102
{ACAD_REACTORS
330
47
102
}
330
47
100
AcDbScale
 70
     0
300
100:1
140
100.0
141
1.0
290
     0
  0
SCALE
  5
59
102
{ACAD_REACTORS
330
47
102
}
330
47
100
AcDbScale
 70
     0
300
1/128" = 1'-0"
140
0.0078125
141
12.0
290
     0
  0
SCALE
  5
5A
102
{ACAD_REACTORS
330
47
102
}
330
47
100
AcDbScale
 70
     0
300
1/64" = 1'-0"
140
0.015625
141
12.0
290
     0
  0
SCALE
  5
5B
102
{ACAD_REACTORS
330
47
102
}
330
47
100
AcDbScale
 70
     0
300
1/32" = 1'-0"
140
0.03125
141
12.0
290
     0
  0
SCALE
  5
5C
102
{ACAD_REACTORS
330
47
102
}
330
47
100
AcDbScale
 70
     0
300
1/16" = 1'-0"
140
0.0625
141
12.0
290
     0
  0
SCALE
  5
5D
102
{ACAD_REACTORS
330
47
102
}
330
47
100
AcDbScale
 70
     0
300
3/32" = 1'-0"
140
0.09375
141
12.0
290
     0
  0
SCALE
  5
5E
102
{ACAD_REACTORS
330
47
102
}
330
47
100
AcDbScale
 70
     0
300
1/8" = 1'-0"
140
0.125
141
12.0
290
     0
  0
SCALE
  5
5F
102
{ACAD_REACTORS
330
47
102
}
330
47
100
AcDbScale
 70
     0
300
3/16" = 1'-0"
140
0.1875
141
12.0
290
     0
  0
SCALE
  5
60
102
{ACAD_REACTORS
330
47
102
}
330
47
100
AcDbScale
 70
     0
300
1/4" = 1'-0"
140
0.25
141
12.0
290
     0
  0
SCALE
  5
61
102
{ACAD_REACTORS
330
47
102
}
330
47
100
AcDbScale
 70
     0
300
3/8" = 1'-0"
140
0.375
141
12.0
290
     0
  0
SCALE
  5
62
102
{ACAD_REACTORS
330
47
102
}
330
47
100
AcDbScale
 70
     0
300
1/2" = 1'-0"
140
0.5
141
12.0
290
     0
  0
SCALE
  5
63
102
{ACAD_REACTORS
330
47
102
}
330
47
100
AcDbScale
 70
     0
300
3/4" = 1'-0"
140
0.75
141
12.0
290
     0
  0
SCALE
  5
64
102
{ACAD_REACTORS
330
47
102
}
330
47
100
AcDbScale
 70
     0
300
1" = 1'-0"
140
1.0
141
12.0
290
     0
  0
SCALE
  5
65
102
{ACAD_REACTORS
330
47
102
}
330
47
100
AcDbScale
 70
     0
300
1-1/2" = 1'-0"
140
1.5
141
12.0
290
     0
  0
SCALE
  5
66
102
{ACAD_REACTORS
330
47
102
}
330
47
100
AcDbScale
 70
     0
300
3" = 1'-0"
140
3.0
141
12.0
290
     0
  0
SCALE
  5
67
102
{ACAD_REACTORS
330
47
102
}
330
47
100
AcDbScale
 70
     0
300
6" = 1'-0"
140
6.0
141
12.0
290
     0
  0
SCALE
  5
68
102
{ACAD_REACTORS
330
47
102
}
330
47
100
AcDbScale
 70
     0
300
1'-0" = 1'-0"
140
12.0
141
12.0
290
     0
  0
ENDSEC
  0
EOF
